Tabsvolo.net - Tablature : T'es belle (sans rire)


 Les tablatures : 68

Chanson française (2017)

Sans rire (2013)

C'est pas tout ça... (2010)

En attendant (2009)

Bref... Septembre 2008

  • Ma p'tite chanson
  • J'espère...
  • Bref

Jours heureux (2007)

Blancs Manteaux à Volo (2006)

Bien Zarbos (2004)

Tablature : T'es belle (sans rire)

26-10-2013

Partager cette tablature

Télécharger la version imprimable 


Ecouter un extrait composé de différentes parties de la tablature :



Légende :
||------|| (xN) : Jouer N fois la partie entre les ||
                 x : Etouffer les cordes
                  t : Taper (légèrement) sur les cordes


Aide et conseils :
Pour le couplet faire un Ebm puis, à la seconde mesure déplacer le majeur en 7 sur la corde de Mi (basse), et sur la troisème mesure déplacer le petit doigt en 9 sur la corde de Mi (basse).
Les 3 premières cordes étouffées le sont avec l'annulaire en case 8 puis la dernière avec le majeur en case 6 (les autres doigts se remettent en place pour plaquer le Ebm ;)

Intro :

     G#m          C#7          Ebm          B            G#m          G#m
e ||------------|------------|------------|------------|------------|------------|
B ||------------|----------6-|----------7-|------------|------------|------------|
G ||----------4-|-------4----|-------8----|----------8-|----------4-|----------4-|
D ||-------6----|----6-------|----8-------|-------9----|-------6----|-------6----|
A ||----6-------|-4----------|-6----------|----9-------|----6-------|----6-------|
E ||-4----------|------------|------------|-7----------|-4----------|-4----------|

    Bb              Bb7
e |----x-6-6--x-6-6--6---6-6-x-|
B |----x-6-6--x-6-6--6---6-6-x-|
G |----x-7-7--x-7-7--7---7-7-x-|
D |----x-8-8--x-8-8--6---6-6-x-|
A |----x-8-8--x-8-8--8---8-8-x-|
E |-6--x-6-6--x-6-8--6---6-6-x-|

Premier couplet :

     Ebm et variations...
e ||----t--6------|---6--t-------|----t--6------|------------x-||
B ||----t--7------|---6--t-6-----|----t--6----6-|---6------x---||
G ||----t--8----8-|---8--t-8---6-|----t--6----6-|---6----x-----|| (x3)
D ||----------8---|----------8---|----------8---|------x-------||
A ||-6------------|--------------|--------------|--------------||
E ||--------------|-7------------|-9------------|-9------------||

     Ebm et variations...
e |----t--6------|---6--t-------|--------------|--------------|
B |----t--7------|---6--t-6-----|--------------|--------------|
G |----t--8----8-|---8--t-8-----|--------------|--------------|
D |----------8---|--------------|--------------|--------------|
A |-6------------|--------------|--------------|--------------|
E |--------------|-7------------|--------------|--------------|

     Ebm et variations...
e ||----t--6------|---6--t-------|----t--6------|------------x-||
B ||----t--7------|---6--t-6-----|----t--6----6-|---6------x---||
G ||----t--8----8-|---8--t-8---6-|----t--6----6-|---6----x-----|| (x4)
D ||----------8---|----------8---|----------8---|------x-------||
A ||-6------------|--------------|--------------|--------------||
E ||--------------|-7------------|-9------------|-9------------||

Premier refrain :

    G#m          C#7          Ebm          B            G#m          G#m
e |------------|------------|------------|------------|------------|------------|
B |------------|----------6-|----------7-|------------|------------|------------|
G |----------4-|-------4----|-------8----|----------8-|----------4-|----------4-|
D |-------6----|----6-------|----8-------|-------9----|-------6----|-------6----|
A |----6-------|-4----------|-6----------|----9-------|----6-------|----6-------|
E |-4----------|------------|------------|-7----------|-4----------|-4----------|

    Bb              Bb7
e |----x-6-6--x-6-6--6---6-6-x-|
B |----x-6-6--x-6-6--6---6-6-x-|
G |----x-7-7--x-7-7--7---7-7-x-|
D |----x-8-8--x-8-8--6---6-6-x-|
A |----x-8-8--x-8-8--8---8-8-x-|
E |-6--x-6-6--x-6-8--6---6-6-x-|

     Ebm et variations...
e |----t--6------|---6--t-------|----t--6------|------------x-|
B |----t--7------|---6--t-6-----|----t--6----6-|---6------x---|
G |----t--8----8-|---8--t-8---6-|----t--6----6-|---6----x-----|
D |----------8---|----------8---|----------8---|------x-------|
A |-6------------|--------------|--------------|--------------|
E |--------------|-7------------|-9------------|-9------------|

Second couplet :

     Ebm et variations...
e ||----t--6------|---6--t-------|----t--6------|------------x-||
B ||----t--7------|---6--t-6-----|----t--6----6-|---6------x---||
G ||----t--8----8-|---8--t-8---6-|----t--6----6-|---6----x-----|| (x8)
D ||----------8---|----------8---|----------8---|------x-------||
A ||-6------------|--------------|--------------|--------------||
E ||--------------|-7------------|-9------------|-9------------||

Second refrain :

     G#m          C#7          Ebm          B            G#m          G#m
e ||------------|------------|------------|------------|------------|------------|
B ||------------|----------6-|----------7-|------------|------------|------------|
G ||----------4-|-------4----|-------8----|----------8-|----------4-|----------4-|
D ||-------6----|----6-------|----8-------|-------9----|-------6----|-------6----|
A ||----6-------|-4----------|-6----------|----9-------|----6-------|----6-------|
E ||-4----------|------------|------------|-7----------|-4----------|-4----------|

    Bb              Bb7
e |----x-6-6--x-6-6--6---6-6--||
B |----x-6-6--x-6-6--6---6-6--||
G |----x-7-7--x-7-7--7---7-7--|| (x5)
D |----x-8-8--x-8-8--6---6-6--||
A |----x-8-8--x-8-8--8---8-8--||
E |-6--x-6-6--x-6-8--6---6-6--||

Fin :

     Ebm et variations...
e ||----t--6------|---6--t-------|----t--6------|------------x-||
B ||----t--7------|---6--t-6-----|----t--6----6-|---6------x---||
G ||----t--8----8-|---8--t-8---6-|----t--6----6-|---6----x-----|| (x4)
D ||----------8---|----------8---|----------8---|------x-------||
A ||-6------------|--------------|--------------|--------------||
E ||--------------|-7------------|-9------------|-9------------||



Paroles

T'es belle quand tu souris
T'es belle tout l'temps
T'es belle même quand tu ris
Et qu'on voit tes dents
T'es belle quand tu rougis
T'es belle en toutes circonstances
T'es belle même quand tu fais une blague pourrie
En plein dans un silence
T'es belle quand tu te trompes
T'es belle quand tu t'entêtes
T'es belle, je m'en rends compte
Même quand t'as l'air bête
T'es belle quand tu t'énerves
T'es belle sans te mentir
T'es belle même si, quand tu t'énerves
C'est pas le moment de te le dire

Déjà du temps de mes amours vagues
J'étais sourd au fracas de leurs écumes
Et comme l'amour m'a toujours fait des blagues
J'dois être aveugle, je présume

T'es belle quand tu bois
T'es belle quand t'es bourrée
T'es belle quand tu marches pas droit
Et qu'tu sais plus parler
T'es belle quand tu dors
T'es belle quand tu ronfles
T'es belle, c'est ça qu'est fort
Même quand tu m'gonfles
T'es belle mal réveillée
T'es belle et je te jure
Que t'es belle même quand t'as été coiffée
Par tes couvertures
T'es belle quand tu me reproches
De n'pas être honnête avec toi mais
T'es belle même quand tu t'trouves moche
Alors je l'garde pour moi

Déjà du temps de mes amours vagues
J'étais sourd au fracas de leurs écumes
Et comme l'amour m'a toujours fait des blagues
J'dois être aveugle, je présume

Déjà du temps de mes amours vagues
J'étais sourd au fracas de leurs écumes
Et comme l'amour m'a toujours fait des blagues
J'dois être aveugle, je présume

T'es belle quand tu souris
T'es belle tout l'temps
T'es belle quand tu rougis
T'es belle quand
T'es belle quand tu me reproches
De pas être honnête avec toi mais
T'es belle même quand tu t'trouves moche
Alors j'le garde pour moi

T'es belle tout l'temps
T'es belle quand

T'es belle tout l'temps
T'es belle quand