Tabsvolo.net - Tablature : Sous le feu


 Les tablatures : 68

Chanson française (2017)

Sans rire (2013)

C'est pas tout ça... (2010)

En attendant (2009)

Bref... Septembre 2008

  • Ma p'tite chanson
  • J'espère...
  • Bref

Jours heureux (2007)

Blancs Manteaux à Volo (2006)

Bien Zarbos (2004)

Tablature : Sous le feu

14-02-2013

Partager cette tablature

Télécharger la version imprimable




Ecouter un extrait composé de différentes parties de la tablature :



Légende :
Dm (Am)     : L'accord est un Ré mineur, mais la position est un La mineur avec le Capo
||------|| (xN) : Jouer N fois la partie entre les ||


Nb : Ce n'est pas exactement la gratté d'Olive mais c'est ce que j'ai de mieux pour le moment ;-)


Capo en 5ème case

Intro :

     Dm (Am)                F (C)                  C (G)                  FM13 (CM13)
e ||--------0--0----0-0---|--------0--0----0-0---|--------3--3----3-3---|-------0-------------||
B ||--------1--1------1---|--------1--1------1---|--------0--0------0---|-------0--0----0---0-||
G ||------2-2--2-2----2-0-|------0-0--0-0----0-0-|------0-0--0-0----0-0-|-----2-2-------------||
D ||----------------------|----------------------|----------------------|------------3----2---||
A ||-0--------------------|-3--------------------|----------------------|---------------------||
E ||----------------------|----------------------|-3--------------------|-1-------------------||

     (x2)

Couplets 1 et 2:

     Dm (Am)                F (C)                  C (G)                  FM13 (CM13)
e ||--------0--0----0-0---|--------0--0----0-0---|--------3--3----3-3---|-------0-------------||
B ||--------1--1------1---|--------1--1------1---|--------0--0------0---|-------0--0----0---0-||
G ||------2-2--2-2----2-0-|------0-0--0-0----0-0-|------0-0--0-0----0-0-|-----2-2-------------||
D ||----------------------|----------------------|----------------------|------------3----2---||
A ||-0--------------------|-3--------------------|----------------------|---------------------||
E ||----------------------|----------------------|-3--------------------|-1-------------------||

     (x4)

Refrains :

    Gm (Dm)                C#2 (G2)               Dm (Am)                F (C)
e |--------1--1----1-1---|--------1--1----1-1---|--------0--0----0-0---|--------0--0----0-0---|
B |--------3--3------3---|--------0--0------0---|--------1--1------1---|--------1--1------1---|
G |------2-2--2-2----2-0-|------0-0--0-0----0-0-|------2-2--2-2----2-0-|------0-0--0-0----0-0-|
D |-0--------------------|----------------------|----------------------|----------------------|
A |----------------------|----------------------|-0--------------------|-3--------------------|
E |----------------------|-3--------------------|----------------------|----------------------|

    Gm (Dm)                C#2 (G2)               F (C)                  A2 (E2)
e |--------1--1----1-1---|--------1--1----1-1---|--------0--0----0-0---|--------0--0----0-0---|
B |--------3--3------3---|--------0--0------0---|--------1--1------1---|--------0--0------0-0-|
G |------2-2--2-2----2-0-|------0-0--0-0----0-0-|------0-0--0-0----0-0-|------1-1--1------1---|
D |-0--------------------|----------------------|----------------------|-------------0--------|
A |----------------------|----------------------|-3--------------------|-2--------------------|
E |----------------------|-3--------------------|----------------------|----------------------|

    Gm (Dm)                C#2 (G2)               Dm (Am)                F (C)
e |--------1--1----1-1---|--------1--1----1-1---|--------0--0----0-0---|--------0--0----0-0---|
B |--------3--3------3---|--------0--0------0---|--------1--1------1---|--------1--1------1---|
G |------2-2--2-2----2-0-|------0-0--0-0----0-0-|------2-2--2-2----2-0-|------0-0--0-0----0-0-|
D |-0--------------------|----------------------|----------------------|----------------------|
A |----------------------|----------------------|-0--------------------|-3--------------------|
E |----------------------|-3--------------------|----------------------|----------------------|

        C (G)                  FM13 (CM13)
e |--------3--3----3-3---|-------0-------------|
B |--------0--0------0---|-------0--0----0---0-|
G |------0-0--0-0----0-0-|-----2-2-------------|
D |----------------------|------------3----2---|
A |----------------------|---------------------|
E |-3--------------------|-1-------------------|

Dernier couplet :

    Dm (Am)                F (C)                  C (G)                  FM13 (CM13)
e |--------0-------0-0---|--------0-------0-0---|--------3-------3-3---|-------0-------0-0---|
B |--------1-------1-1---|--------1-------1-1---|--------0-------0-0---|-------0-------0-0---|
G |------2-2-------2-2-0-|------0-0-------0-0-0-|------0-0-------0-0-0-|-----2-2-------2-2---|
D |----------------------|----------------------|----------------------|-------------------0-|
A |-0--------------------|-3--------------------|----------------------|---------------------|
E |----------------------|----------------------|-3--------------------|-1-------------------|

    Dm (Am)                F (C)                  C (G)                  FM13 (CM13)
e |--------0-------0-0---|--------0-------0-0---|--------3-------3-3---|-------0-------------|
B |--------1-------1-1---|--------1-------1-1---|--------0-------0-0---|-------0-------------|
G |------2-2-------2-2-0-|------0-0-------0-0-0-|------0-0-------0-0-0-|-----2-2-------------|
D |----------------------|----------------------|----------------------|---------------------|
A |-0--------------------|-3--------------------|----------------------|---------------------|
E |----------------------|----------------------|-3--------------------|-1-------------------|

     Dm (Am)                F (C)                  C (G)                  FM13 (CM13)
e ||--------0--0----0-0---|--------0--0----0-0---|--------3--3----3-3---|-------0-------------||
B ||--------1--1------1---|--------1--1------1---|--------0--0------0---|-------0--0----0---0-||
G ||------2-2--2-2----2-0-|------0-0--0-0----0-0-|------0-0--0-0----0-0-|-----2-2-------------||
D ||----------------------|----------------------|----------------------|------------3----2---||
A ||-0--------------------|-3--------------------|----------------------|---------------------||
E ||----------------------|----------------------|-3--------------------|-1-------------------||

     (x2)

Fin :

    Dm (Am)                F (C)                  C (G)                  FM13 (CM13)
e |--------0--0----0-0---|--------0--0----0-0---|--------3--3----3-3---|-------0-------------|
B |--------1--1------1---|--------1--1------1---|--------0--0------0---|-------0--0----0---0-|
G |------2-2--2-2----2-0-|------0-0--0-0----0-0-|------0-0--0-0----0-0-|-----2-2-------------|
D |----------------------|----------------------|----------------------|------------3----2---|
A |-0--------------------|-3--------------------|----------------------|---------------------|
E |----------------------|----------------------|-3--------------------|-1-------------------|

    Dm (Am)                F (C)                  C (G)                  FM13 (CM13)
e |--------0--0----0-0---|--------0--0----0-0---|--------3--3----3-3---|-------0-----------0-|
B |--------1--1------1---|--------1--1------1---|--------0--0------0---|-------0--0----0-----|
G |------2-2--2-2----2-0-|------0-0--0-0----0-0-|------0-0--0-0----0-0-|-----2-2-------------|
D |----------------------|----------------------|----------------------|------------3----2---|
A |-0--------------------|-3--------------------|----------------------|---------------------|
E |----------------------|----------------------|-3--------------------|-1-------------------|

    Dm (Am)   
e |-----------------------||
B |-----1-----------------||
G |----2------------------||
D |---2-------------------||
A |--0--------------------||
E |-0---------------------||


Paroles

A défaut d'être sûr, qu'aucune chose n'est certaine
Je pense à mieux que rien, sans savoir quoi penser
A jauger le plaisir, à l'aune de sa peine
Etendu par terre, j'ai peur de tomber

Sous le feu de tes baisers
Sous le feu de tes baisers
Je frissone, brulant
Et mes lèvres embrasées, claquent des dents

A moins de se convaincre, de tout et son contraire
J'arrive à me souv'nir, de ne rien oublier
Je gagne à chaque coup, et toujours je perds
Etendu par terre, j'ai peur de tomber

Sous le feu de tes baisers
Sous le feu de tes baisers
Je frissone, brulant
Et mes lèvres embrasées, claquent des dents

A force de s'avouer, plus jamais se mentir
Je réalise combien, je nous imaginais
Incapable de s'entendre, parler pour ne rien dire
Etendu par terre, sans peur de tomber

Sous le feu de tes baisers
Sous le feu de tes baisers
Je frissone, brulant
Et mes lèvres embrasées, claquent des dents