Tabsvolo.net - Tablature : Tu m'fais marrer (bébé)


 Les tablatures : 68

Chanson française (2017)

Sans rire (2013)

C'est pas tout ça... (2010)

En attendant (2009)

Bref... Septembre 2008

  • Ma p'tite chanson
  • J'espère...
  • Bref

Jours heureux (2007)

Blancs Manteaux à Volo (2006)

Bien Zarbos (2004)

Tablature : Tu m'fais marrer (bébé)


Partager cette tablature

Télécharger la version imprimable 


Ecouter un extrait composé de différentes parties de la tablature :




Intro :
    Gm     Cm      F      Gm             D#      D
e |--------------|--------------|--------------|--------------|
B |---3-3----4-4-|---1-1----3-3-|---3-3----8-8-|---7-7----7-7-|
G |---3-3----5-5-|---2-2----3-3-|---3-3----8-8-|---7-7----7-7-|
D |--------------|--------------|--------------|--------7-----|
A |--------3-----|--------------|--------------|--------------|
E |-3------------|-1------3-----|-3------6-----|-5------------|

    Gm     Cm      F      Gm      F
e |--------------|--------------|--------------|--------------|
B |---3-3----4-4-|---1-1----3-3-|---1-1----1-1-|---1-1--------|
G |---3-3----5-5-|---2-2----3-3-|---2-2----2-2-|---2-2---2----|
D |--------------|--------------|--------------|-3------------|
A |--------3-----|--------------|--------3-----|--------------|
E |-3------------|-1------3-----|-1------------|--------------|


Couplets 1 et 2 :
    Gm     Gm/F#   Bb     F       Gm     Gm/F#   Bb     Cm
e |--------------|--------------|--------------|--------------|
B |---3-3----3-3-|---3-3----1-1-|---3-3----3-3-|---3-3----4-4-|
G |---3-3----3-3-|---3-3----2-2-|---3-3----3-3-|---3-3----5-5-|
D |--------------|--------------|--------------|--------------|
A |--------------|-1------------|--------------|-1------3-----|
E |-3------2-----|--------1-----|-3------2-----|--------------|

    Cm     Gm      Dm     F       Cm     Gm      D#     D
e |--------------|--------------|--------------|--------------|
B |---4-4----3-3-|---6-6----1-1-|---4-4----3-3-|---8-8----7-7-|
G |---5-5----3-3-|---7-7----2-2-|---5-5----3-3-|---8-8----7-7-|
D |--------------|--------------|--------------|--------------|
A |-3------------|-5------------|-3------------|-6------5-----|
E |--------3-----|--------1-----|--------3-----|--------------|


Refrain :
    Gm             Cm     F       Gm             Cm     F
e |--------------|--------------|--------------|--------------|
B |---3-3----3-3-|---4-4----1-1-|---3-3----3-3-|---4-4----1-1-|
G |---3-3----3-3-|---5-5----2-2-|---3-3----3-3-|---5-5----2-2-|
D |--------------|--------------|--------------|--------------|
A |--------------|-3------------|--------------|-3------------|
E |-3------3-----|--------1-----|-3------3-----|--------1-----|

    Cm             F              Gm     F/Gm    D#/Gm  D
e |--------------|--------------|--------------|--------------|
B |---4-4----4-4-|---1-1----1-1-|---3-3----3-3-|---3-3--------|
G |---5-5----5-5-|---2-2----2-2-|---3-3----3-3-|---3-3--------|
D |--------5-----|--------------|--------3-----|-1------------|
A |-3------------|--------3-----|--------------|--------5-----|
E |--------------|-1------------|-3------------|--------------|


Couplets 3 :
    Gm     Gm/F#   Bb     F       Gm     Gm/F#   Bb     Cm
e |--------------|--------------|--------------|--------------|
B |---3-3----3-3-|---3-3----1-1-|---3-3----3-3-|---3-3----4-4-|
G |---3-3----3-3-|---3-3----2-2-|---3-3----3-3-|---3-3----5-5-|
D |--------------|--------------|--------------|--------------|
A |--------------|-1------------|--------------|-1------3-----|
E |-3------2-----|--------1-----|-3------2-----|--------------|

    Cm     Gm      Dm     F       Cm     Gm      D#     D
e |--------------|--------------|--------------|--------------|---------------------|
B |---4-4----3-3-|---6-6----1-1-|---4-4----3-3-|---8-8----7-7-|---7-7----7-7----7-7-|
G |---5-5----3-3-|---7-7----2-2-|---5-5----3-3-|---8-8----7-7-|---7-7----7-7----7-7-|
D |--------------|--------------|--------------|--------------|---------------------|
A |-3------------|-5------------|-3------------|-6------5-----|-5------5------5-----|
E |--------3-----|--------1-----|--------3-----|--------------|---------------------|


Refrain :
    Gm             Cm     F       Gm             Cm     F
e |--------------|--------------|--------------|--------------|
B |---3-3----3-3-|---4-4----1-1-|---3-3----3-3-|---4-4----1-1-|
G |---3-3----3-3-|---5-5----2-2-|---3-3----3-3-|---5-5----2-2-|
D |--------------|--------------|--------------|--------------|
A |--------------|-3------------|--------------|-3------------|
E |-3------3-----|--------1-----|-3------3-----|--------1-----|

    Cm             F              Gm     F/Gm    D#/Gm  D
e |--------------|--------------|--------------|--------------|
B |---4-4----4-4-|---1-1----1-1-|---3-3----3-3-|---3-3--------|
G |---5-5----5-5-|---2-2----2-2-|---3-3----3-3-|---3-3--------|
D |--------5-----|--------------|--------3-----|-1------------|
A |-3------------|--------3-----|--------------|--------5-----|
E |--------------|-1------------|-3------------|--------------|


Fin :
    Gm     Cm      F      Gm             D#      D
e |--------------|--------------|--------------|--------------|
B |---3-3----4-4-|---1-1----3-3-|---3-3----8-8-|---7-7----7-7-|
G |---3-3----5-5-|---2-2----3-3-|---3-3----8-8-|---7-7----7-7-|
D |--------------|--------------|--------------|--------7-----|
A |--------3-----|--------------|--------------|--------------|
E |-3------------|-1------3-----|-3------6-----|-5------------|

    Gm     Cm      F      Gm      F
e |--------------|--------------|--------------|--------------|
B |---3-3----4-4-|---1-1----3-3-|---1-1----1-1-|---1-1--------|
G |---3-3----5-5-|---2-2----3-3-|---2-2----2-2-|---2-2---2----|
D |--------------|--------------|--------------|-3------------|
A |--------3-----|--------------|--------3-----|--------------|
E |-3------------|-1------3-----|-1------------|--------------|


Paroles


Tu m'fais marrer bébé
Quand on joue à cache-cache
Dix fois dans la journée
A tous les coups ça marche
Tu m'fais marrer bébé
Quand t'as l'air tout déçu
Ou bien très énervé
Alors c'est qu'tu t'chies d'ssus
Tu m'fais marrer bébé
Comme t'as l'air d'aimer l'sable
Quand j'te fais des pâtés
On croirait qu't'es à table
Tu m'fais marrer bébé
Comme tu m'repousses des mains
Comme tu m'donnes des coups d'pieds
Quand je t'fais un câlin

C'est maint'nant
Et tout d'suite
C'est pour l'instant
Que j'en profite
C'est pas le bon moment
Pour se dire que le temps
Passe vite

Ils m'font marrer bébé
Comme tu les rends gagas
Mon papa ton pépé
J'l'ai jamais vu comme ça
Ils m'font marrer bébé
Quand ils me disent quoi faire
Alors qu'j'ai rien d'mandé
J'écoute surtout ta mère
Ils m'font marrer bébé
A dire que t'as grandi
Et qu'est-ce que t'as changé
Alors que t'es toujours tout p'tit
Ils m'font marrer bébé
Quand ils poussent un soupir
Encore à m'répéter
Que j'vais pas t'voir grandir

C'est maint'nant
Et tout d'suite
C'est pour l'instant
Que j'en profite
C'est pas le bon moment
Pour se dire que le temps
Passe vite

On va s'marrer bébé
Quand tu demand'ras pourquoi
Et que j'vais t'expliquer
Des trucs que j'sais même pas
On va s'marrer bébé
Même si j'peux rien t'promettre
Et quand faudra pleurer
Faudra aussi s'en r'mettre
On va s'marrer bébé
A se faire des mac do
J'suis sûr qu'a démonter
C'est vach'ment rigolo
On va s'marrer bébé
Et même si rien n'se passe
Comme j'veux l'imaginer
Si c'est vrai qu'tout s'efface

C'est maint'nant
Et tout d'suite
C'est pour l'instant
Que j'en profite
C'est pas le bon moment
Pour se dire que le temps
C'est maint' nant
Et tout d'suite
C'est pour l'instant
Que j'en profite
C'est pas le bon moment
Pour se dire que le temps
Passe vite