Tabsvolo.net - Tablature : Bien Zarbos


 Les tablatures : 68

Chanson française (2017)

Sans rire (2013)

C'est pas tout ça... (2010)

En attendant (2009)

Bref... Septembre 2008

  • Ma p'tite chanson
  • J'espère...
  • Bref

Jours heureux (2007)

Blancs Manteaux à Volo (2006)

Bien Zarbos (2004)

Tablature : Bien Zarbos

Télécharger la version imprimable




Ecouter un extrait composé de différentes parties de la tablature :

Intro (refrain) :
     Em        Bm        A         Bm        Em        Bm        F#
e ||---------|---------|---------|---------|---------|---------|---------|---------|
B ||---8---8-|---3---3-|---------|---3---3-|---8---8-|---3---3-|---2---2-|---2-----|
G ||---9---9-|---4---4-|---6---6-|---4---4-|---9---9-|---4---4-|---3---3-|---3-----|
D ||-----9---|-----4---|---7---7-|-----4---|-----9---|-----4---|---------|-4-------|
A ||-7-------|-2-------|-----7---|-2-------|-7-------|-2-------|-----4---|---------|
E ||---------|---------|-5-------|---------|---------|---------|-2-------|---------|

    Bm        Bm
e |---------|---------|
B |---3---3-|---3---3-|
G |---4---4-|---4---4-|
D |-----4---|-----4---|
A |-2-------|-2-------|
E |---------|---------|


Couplet 1,2,3 :
    Bm        Em        A         Bm        Bm        Em        A         Bm
e |---------|---------|---------|---------|---------|---------|---------|---------|
B |---3---3-|---0---0-|---------|---3---3-|---3---3-|---0---0-|---------|---3---3-|
G |---4---4-|---0---0-|---6---6-|---4---4-|---4---4-|---0---0-|---6---6-|---4---4-|
D |-----4---|---------|---7---7-|-----4---|-----4---|---------|---7---7-|-----4---|
A |-2-------|-----2---|-----7---|-2-------|-2-------|-----2---|-----7---|-2-------|
E |---------|-0-------|-5-------|---------|---------|-0-------|-5-------|---------|


Refrain 1,2 :
    Em        Bm        A         Bm        Em        Bm        F#
e |---------|---------|---------|---------|---------|---------|---------|
B |---8---8-|---3---3-|---------|---3---3-|---8---8-|---3---3-|---2---2-|
G |---9---9-|---4---4-|---6---6-|---4---4-|---9---9-|---4---4-|---3---3-|
D |-----9---|-----4---|---7---7-|-----4---|-----9---|-----4---|---------|
A |-7-------|-2-------|-----7---|-2-------|-7-------|-2-------|-----4---|
E |---------|---------|-5-------|---------|---------|---------|-2-------|

    Bm        Bm
e |---------|---------|
B |---3---3-|---3---3-|
G |---4---4-|---4---4-|
D |-----4---|-----4---|
A |-2-------|-2-------|
E |---------|---------|


Dernier refrain :
     Em        Bm        A         Bm        Em        Bm        F#
e ||---------|---------|---------|---------|---------|---------|---------|---------|
B ||---8---8-|---3---3-|---------|---3---3-|---8---8-|---3---3-|---2---2-|---2-----|
G ||---9---9-|---4---4-|---6---6-|---4---4-|---9---9-|---4---4-|---3---3-|---3-----|
D ||-----9---|-----4---|---7---7-|-----4---|-----9---|-----4---|---------|-4-------|
A ||-7-------|-2-------|-----7---|-2-------|-7-------|-2-------|-----4---|---------|
E ||---------|---------|-5-------|---------|---------|---------|-2-------|---------|


Fin (avec alto et violoncelle) :
    Em                  Bm                  Em                  A
e |---------|---------|---------|---------|---------|---------|---------|---------|
B |---8---8-|---8---8-|---3---3-|---3---3-|---0---0-|---0---0-|---------|---------|
G |---9---9-|---9---9-|---4---4-|---4---4-|---0---0-|---0---0-|---6---6-|---6---6-|
D |-----9---|-----9---|-----4---|-----4---|---------|---------|---7---7-|---7---7-|
A |-7-------|-7-------|-2-------|-2-------|-----2---|-----2---|-----7---|-----7---|
E |---------|---------|---------|---------|-0-------|-0-------|-5-------|-5-------|

    Bm        Bm        Bm
e |---------|---------|---------|---------||
B |---3---3-|---3---3-|---3---3-|---------||
G |---4---4-|---4---4-|---4---4-|---------||
D |-----4---|-----4---|-----4---|---------||
A |-2-------|-2-------|-2-------|-2-------||
E |---------|---------|---------|---------||

                                Laisser mourrir le Si...


Paroles


Je suis dans une situation bien zarbos
J'ai plus qu'à attendre que ça passe
J'ai pas trop de solution
Tiens j'ai fini mon coss'
J'ai plus qu'à attendre que... ça casse

Ca fait mal dans le bide
A chaqu'fois c'est pareil
J'essaye pas de comprendre
Elle me plaît je m'accroche
Ca sonne dans le vide
Je me rassois, je change d'oreille
Mon voisin doit m'entendre
S'il te plait, décroche

Je suis dans une situation bien zarbos
J'ai plus qu'à attendre que ça passe
J'ai pas trop de solution
Tiens, j'ai fini mon coss'
J'ai plus qu'à attendre que ça casse

Ca fait mal à la vie
Mais le désespoir j'aime ça
Je s'rais pas malheureux
Trop longtemps j'me connais
Je veux juste son avis
Pis savoir si ça va
Si nous deux ça a été important pour de vrai

Je suis dans une situation bien zarbos
J'ai plus qu'à attendre que ça passe
J'ai pas trop de solution
Tiens, j'ai fini mon coss'
J'ai plus qu'à attendre que ça casse

Ca fait mal mais c'est bon
De pleurer par amour
On chiale un peu pour elle
Ca soulage de crier
Tout c'qu'on a de profond
Enterré qui pèse lourd
Des milliers d'sacs poubelles
Qu'on décharge sans trier

Je suis dans une situation bien zarbos
J'ai plus qu'à attendre que ça passe
J'ai pas trop de solution
Tiens, j'ai fini mon coss'
J'ai plus qu'à attendre que...