Tabsvolo.net - Tablature : Depuis quand


 Les tablatures : 76

17 ans (En acoustique) (2022)

Avec son frère (2020)

Chanson française (2017)

Sans rire (2013)

C'est pas tout ça... (2010)

En attendant (2009)

Bref... Septembre 2008

  • Ma p'tite chanson
  • J'espère...
  • Bref

Jours heureux (2007)

Blancs Manteaux à Volo (2006)

Bien Zarbos (2004)

Tablature : Depuis quand

19-04-2020

Partager cette tablature

Télécharger la version imprimable 


Ecouter un extrait composé de différentes parties de la tablature :



Légende :
||------|| (xN) : Jouer N fois la partie entre les ||
              (1) : Note non jouée ou très atténuée


Capo 4


Intro :

     Am (C#m)                                            Dm6 (F#m6)
e ||------------|------------|------------|------------|------------|------------|------------|----------0-|
B ||----------1-|----------1-|----------1-|----------0-|----------3-|----------3-|----------3-|---(3)------|
G ||---(2)------|---(2)------|---(2)------|---(2)------|---(2)------|---(2)------|---(2)------|-------2----|
D ||-------2----|-------2----|-------2----|-------2----|-------3----|-------3----|-------3----|-0----------|
A ||-0----------|-0----------|-0----------|-3----------|-2----------|-2----------|-2----------|------------|
E ||------------|------------|------------|------------|------------|------------|------------|------------|

    FM7 (AM7)                                           G7 (B7)
e |----------0-|----------0-|----------0-|---(0)----0-|------------|------------|------------|------------|
B |---(1)------|---(1)------|---(1)------|-------1----|----------0-|----------0-|----------0-|----------0-|
G |-------2----|-------2----|-------2----|-0----------|---(0)------|---(0)------|---(0)------|---(0)------|
D |-3----------|-3----------|-3----------|------------|-------3----|-------3----|-------3----|-------0----|
A |------------|------------|------------|------------|------------|------------|------------|------------|
E |------------|------------|------------|------------|-3----------|-3----------|-3----------|-4----------|

Couplets 1 et 2 :

     Am (C#m)                                            Dm6 (F#m6)
e ||------------|------------|------------|------------|------------|------------|------------|----------0-|
B ||----------1-|----------1-|----------1-|----------0-|----------3-|----------3-|----------3-|---(3)------|
G ||---(2)------|---(2)------|---(2)------|---(2)------|---(2)------|---(2)------|---(2)------|-------2----|
D ||-------2----|-------2----|-------2----|-------2----|-------3----|-------3----|-------3----|-0----------|
A ||-0----------|-0----------|-0----------|-3----------|-2----------|-2----------|-2----------|------------|
E ||------------|------------|------------|------------|------------|------------|------------|------------|

    FM7 (AM7)                                           G7 (B7)
e |----------0-|----------0-|----------0-|---(0)----0-|------------|------------|------------|------------||
B |---(1)------|---(1)------|---(1)------|-------1----|----------0-|----------0-|----------0-|----------0-||
G |-------2----|-------2----|-------2----|-0----------|---(0)------|---(0)------|---(0)------|---(0)------|| (x2)
D |-3----------|-3----------|-3----------|------------|-------3----|-------3----|-------3----|-------0----||
A |------------|------------|------------|------------|------------|------------|------------|------------||
E |------------|------------|------------|------------|-3----------|-3----------|-3----------|-4----------||

Refrain 1 :

     C (E)                                               Dm7 (Fm7)
e ||----------0-|----------0-|----------0-|----------0-|----------1-|----------1-|----------1-|----------1-|
B ||---(1)------|---(1)------|---(1)------|---(1)------|---(3)------|---(3)------|---(3)------|---(3)------|
G ||-------0----|-------0----|-------0----|-------0----|-------2----|-------2----|-------2----|-------2----|
D ||------------|------------|------------|-2----------|-0----------|-0----------|------------|------------|
A ||-3----------|-3----------|-3----------|------------|------------|------------|-3----------|-3----------|
E ||------------|------------|------------|------------|------------|------------|------------|------------|

    G7 (B7)                                             C (E)
e |----------1-|----------1-|----------1-|----------0-|----------0-|----------0-|----------0-|---------0-||
B |---(3)------|---(3)------|---(3)------|---(3)------|---(1)------|---(1)------|---(1)------|--(1)------||
G |-------0----|-------0----|-------0----|-------0----|-------0----|-------0----|-------0----|------0----|| (x2)
D |------------|------------|------------|-0----------|------------|------------|------------|-0^2-------||
A |-2----------|-2----------|-2----------|------------|-3----------|-3----------|-3----------|-----------||
E |------------|------------|------------|------------|------------|------------|------------|-----------||


    Am (C#m)                                            Dm6 (F#m6)
e |------------|------------|------------|------------|------------|------------|------------|----------0-|
B |----------1-|----------1-|----------1-|----------0-|----------3-|----------3-|----------3-|---(3)------|
G |---(2)------|---(2)------|---(2)------|---(2)------|---(2)------|---(2)------|---(2)------|-------2----|
D |-------2----|-------2----|-------2----|-------2----|-------3----|-------3----|-------3----|-0----------|
A |-0----------|-0----------|-0----------|-3----------|-2----------|-2----------|-2----------|------------|
E |------------|------------|------------|------------|------------|------------|------------|------------|

    FM7 (AM7)                                           G7 (B7)
e |----------0-|----------0-|----------0-|---(0)----0-|------------|------------|------------|------------|
B |---(1)------|---(1)------|---(1)------|-------1----|----------0-|----------0-|----------0-|----------0-|
G |-------2----|-------2----|-------2----|-0----------|---(0)------|---(0)------|---(0)------|---(0)------|
D |-3----------|-3----------|-3----------|------------|-------3----|-------3----|-------3----|-------0----|
A |------------|------------|------------|------------|------------|------------|------------|------------|
E |------------|------------|------------|------------|-3----------|-3----------|-3----------|-4----------|

{ 2ème couplet }

Refrain 2 :

    C (E)                                               Dm7 (Fm7)
e |----------0-|----------0-|----------0-|----------0-|----------1-|----------1-|----------1-|----------1-|
B |---(1)------|---(1)------|---(1)------|---(1)------|---(3)------|---(3)------|---(3)------|---(3)------|
G |-------0----|-------0----|-------0----|-------0----|-------2----|-------2----|-------2----|-------2----|
D |------------|------------|------------|-2----------|-0----------|-0----------|------------|------------|
A |-3----------|-3----------|-3----------|------------|------------|------------|-3----------|-3----------|
E |------------|------------|------------|------------|------------|------------|------------|------------|

    G7 (B7)                                             C (E)
e |----------1-|----------1-|----------1-|----------0-|----------0-|----------0-|----------0-|---------0-|
B |---(3)------|---(3)------|---(3)------|---(3)------|---(1)------|---(1)------|---(1)------|--(1)------|
G |-------0----|-------0----|-------0----|-------0----|-------0----|-------0----|-------0----|------0----|
D |------------|------------|------------|-0----------|------------|------------|------------|-0^2-------|
A |-2----------|-2----------|-2----------|------------|-3----------|-3----------|-3----------|-----------|
E |------------|------------|------------|------------|------------|------------|------------|-----------|
    C (E)                                               Dm7 (Fm7)
e |----------0-|----------0-|----------0-|----------0-|----------1-|----------1-|----------1-|----------1-|
B |---(1)------|---(1)------|---(1)------|---(1)------|---(3)------|---(3)------|---(3)------|---(3)------|
G |-------0----|-------0----|-------0----|-------0----|-------2----|-------2----|-------2----|-------2----|
D |------------|------------|------------|-2----------|-0----------|-0----------|------------|------------|
A |-3----------|-3----------|-3----------|------------|------------|------------|-3----------|-3----------|
E |------------|------------|------------|------------|------------|------------|------------|------------|

    G7 (B7)                                             C (E)
e |----------1-|----------1-|----------1-|----------0-|----------0-|----------0-|----------0-|---------0-|
B |---(3)------|---(3)------|---(3)------|---(3)------|---(1)------|---(1)------|---(1)------|--(1)------|
G |-------0----|-------0----|-------0----|-------0----|-------0----|-------0----|-------0----|------0----|
D |------------|------------|------------|-0----------|------------|------------|------------|-----------|
A |-2----------|-2----------|-2----------|------------|-3----------|-3----------|-3----------|-3---------|
E |------------|------------|------------|------------|------------|------------|------------|-----------|

Pont :

    C (E)                                             Am (C#m)
e |----------0-|----------0-|----------0-|----------0-|----------0-|----------0-|----------0-|----------0-|
B |---(1)------|---(1)------|---(1)------|---(1)------|---(1)------|---(1)------|---(1)------|---(1)------|
G |-------0----|-------0----|-------0----|-------0----|-------2----|-------2----|-------2----|-------2----|
D |------------|------------|-3----------|-2----------|------------|------------|-3----------|-2----------|
A |-3----------|-3----------|------------|------------|-0----------|-0----------|------------|------------|
E |------------|------------|------------|------------|------------|------------|------------|------------|

    E sus4 (G# sus4)
e |----------0-|----------0-|---------0-|----0-------|
B |---(0)------|---(0)------|---(0)-----|-0--------0-|
G |-------2----|-------2----|-------2---|-------2----|
D |------------|------------|-3---------|------------|
A |-2----------|-2----------|-----------|------------|
E |------------|------------|-----------|------------|

Dernier couplet :

     C (E)                                               FM7 (AM7)
e ||----------0-|----------0-|----------0-|----------0-|----------0-|----------0-|----------0-|----0-------|
B ||---(1)------|---(1)------|---(1)------|---(1)------|---(1)------|---(1)------|---(1)------|-1--------1-|
G ||-------0----|-------0----|-------0----|-------0----|-------2----|-------2----|-------2----|-------2----|
D ||------------|------------|------------|------------|-3----------|-3----------|-3----------|------------|
A ||-3----------|-3----------|-3----------|-3----------|------------|------------|------------|------------|
E ||------------|------------|------------|------------|------------|------------|------------|------------|

    Em (G#m)                                            Am (C#m)
e |----------0-|----------0-|----------0-|----------0-|----------0-|----------0-|----------0-|----------0-||
B |---(0)------|---(0)------|---(0)------|---(0)------|---(1)------|---(1)------|---(1)------|---(1)------||
G |-------0----|-------0----|-------0----|-------0----|-------2----|-------2----|-------2----|-------2----|| (x2)
D |------------|------------|------------|------------|------------|------------|------------|------------||
A |-2----------|-2----------|-2----------|-2----------|-0----------|-0----------|-0----------|-0----------||
E |------------|------------|------------|------------|------------|------------|------------|------------||

Fin :

    Am (C#m)
e |----------------------||
B |----------------------||
G |----------------------||
D |----------------------||
A |-0--------------------||
E |----------------------||



Paroles

Depuis quand faut d'l'amour dans l'désir
Depuis quand on peut plus s'faire plaisir
La vie est courte naturell'ment
Ma femme a un amant
Depuis faudrait qu'on s'interdise
La peau, la chair, le lâcher prise
Pour se manger littéralement
Ma femme à un amant

Tant que ça sonne toujours pas faux
Quand elle me dit qu'elle me trouve beau
C'est suffisant, me concernant
Même si j'еn demandais pas tant
Tant que ça sonne toujours pas faux
Quand еlle me dit qu'elle me trouve beau
C'est suffisant, me concernant
Même si j'en demandais pas tant

Depuis quand j'devrai lui en vouloir
Depuis j'en f'rai toute une histoire
Faut pas s'prendre par les sentiments
Ma femme a un amant
Depuis faudrait trouver ça moche
Depuis quand on s'rait plus tell'ment proche
Comme si de rien n'était cousu de fil blanc
Ma femme a un amant

Tant que ça sonne toujours pas faux
Quand elle me dit qu'elle me trouve beau
C'est suffisant, me concernant
Même si j'en demandais pas tant
Tant que ça sonne toujours pas faux
Quand elle me dit qu'elle me trouve beau
C'est suffisant, me concernant
Même si j'en demandais pas tant

Depuis quand je devrais avoir peur
Depuis je pourrais lui cacher
Depuis quand j'aurais perdu l'ardeur
De ses baisers
Depuis quand je devrais avoir peur
Depuis je pourrais lui cacher
Depuis quand j'aurais perdu l'ardeur
De ses baisers