Tabsvolo.net - Tablature : C'est pas grand c'qu'on vit


 Les tablatures : 68

Chanson française (2017)

Sans rire (2013)

C'est pas tout ça... (2010)

En attendant (2009)

Bref... Septembre 2008

  • Ma p'tite chanson
  • J'espère...
  • Bref

Jours heureux (2007)

Blancs Manteaux à Volo (2006)

Bien Zarbos (2004)

Tablature : C'est pas grand c'qu'on vit

Télécharger la version imprimable
Légende :
^ : Pull-off ou Pull-on (ici : Pull-off)

Intro :
e ||-----------------|-----------------|
B ||-0-0-0-0-0-0-1-1-|-0-0-0-0-0-0-1-1-|
G ||-0-0-0-0-0-0-0-0-|-0-0-0-0-0-0-0-0-|
D ||-2-2-------------|-2-2-------------|
A ||-----3-3---------|-----3-3---------|
E ||---------3-3-2-2-|---------3-3-2-2-|


Couplet :
e |-----------------|-----------------|-----------------|-----------------|
B |-0-0-0-0-0-0-1-1-|-0-0-0-0-0-0-1-1-|-0-0-0-0-0-0-1-1-|-0-0-0-0-0-0-1-1-|
G |-0-0-0-0-0-0-0-0-|-0-0-0-0-0-0-0-0-|-0-0-0-0-0-0-0-0-|-0-0-0-0-0-0-0-0-|
D |-2-2-------------|-2-2-------------|-2-2-------------|-2-2-------------|
A |-----3-3---------|-----3-3---------|-----3-3---------|-----3-3---------|
E |---------3-3-2-2-|---------3-3-2-2-|---------3-3-2-2-|---------3-3-2-2-|

e |-------------|
B |-1-1-1-1-1-1-|
G |-0-0-0-0-0-0-|
D |-------------|
A |-------------|
E |-2-2-0-0-0-0-|


Refrain :
e |---------|---------|---------|-----------|---------|-----------|
B |-1-1-1-1-|-3-3-3-3-|-1-1-1-1-|-1-1-1-1^0-|-3-3-3-3-|-1-1-1-1^0-|
G |-0-0-0-0-|-0-0-0-0-|-0-0-0-0-|-2-2-2-2---|-2-2-2-2-|-0-0-0-0---|
D |---------|---------|---------|-----------|---------|-----------|
A |---------|---------|-3-3-2-2-|-0-0-0-0---|---------|-3-3-3-3---|
E |-2-2-2-2-|-3-3-2-2-|---------|-----------|-2-2-2-2-|-----------|

e |---------|---------|-----------|---------|---------|
B |-3-3-3-3-|-3-3-3-3-|-1-1-1-1^0-|-3-3-3-3-|-3-3-3-3-|
G |-2-2-2-2-|-0-0-0-0-|-0-0-0-0---|-2-2-2-2-|-2-2-2-2-|
D |---------|---------|-----------|---------|---------|
A |---------|-2-2-2-2-|-3-3-3-3---|---------|---------|
E |-2-2-2-2-|---------|-----------|-2-2-2-2-|-2-2-2-2-|


Couplet :
e |-----------------|-----------------|-----------------|-----------------|
B |-0-0-0-0-0-0-1-1-|-0-0-0-0-0-0-1-1-|-0-0-0-0-0-0-1-1-|-0-0-0-0-0-0-1-1-|
G |-0-0-0-0-0-0-0-0-|-0-0-0-0-0-0-0-0-|-0-0-0-0-0-0-0-0-|-0-0-0-0-0-0-0-0-|
D |-2-2-------------|-2-2-------------|-2-2-------------|-2-2-------------|
A |-----3-3---------|-----3-3---------|-----3-3---------|-----3-3---------|
E |---------3-3-2-2-|---------3-3-2-2-|---------3-3-2-2-|---------3-3-2-2-|

e |-----------------|-----------------|-----------------|-----------------|
B |-0-0-0-0-0-0-1-1-|-0-0-0-0-0-0-1-1-|-0-0-0-0-0-0-1-1-|-0-0-0-0-0-0-1-1-|
G |-0-0-0-0-0-0-0-0-|-0-0-0-0-0-0-0-0-|-0-0-0-0-0-0-0-0-|-0-0-0-0-0-0-0-0-|
D |-2-2-------------|-2-2-------------|-2-2-------------|-2-2-------------|
A |-----3-3---------|-----3-3---------|-----3-3---------|-----3-3---------|
E |---------3-3-2-2-|---------3-3-2-2-|---------3-3-2-2-|---------3-3-2-2-|

e |-------------|
B |-1-1-1-1-1-1-|
G |-0-0-0-0-0-0-|
D |-------------|
A |-------------|
E |-2-2-0-0-0-0-|


Refrain :
e |---------|---------|---------|-----------|---------|-----------|
B |-1-1-1-1-|-3-3-3-3-|-1-1-1-1-|-1-1-1-1^0-|-3-3-3-3-|-1-1-1-1^0-|
G |-0-0-0-0-|-0-0-0-0-|-0-0-0-0-|-2-2-2-2---|-2-2-2-2-|-0-0-0-0---|
D |---------|---------|---------|-----------|---------|-----------|
A |---------|---------|-3-3-2-2-|-0-0-0-0---|---------|-3-3-3-3---|
E |-2-2-2-2-|-3-3-2-2-|---------|-----------|-2-2-2-2-|-----------|

e |---------|---------|-----------|---------|
B |-3-3-3-3-|-3-3-3-3-|-1-1-1-1^0-|-3-3-3-3-|
G |-2-2-2-2-|-0-0-0-0-|-0-0-0-0---|-2-2-2-2-|
D |---------|---------|-----------|---------|
A |---------|-2-2-2-2-|-3-3-3-3---|---------|
E |-2-2-2-2-|---------|-----------|-2-2-2-2-|


Fin, dernier couplet :
e |-----------------|-----------------|
B |-0-0-0-0-0-0-1-1-|-0-0-0-0-0-0-1-1-|
G |-0-0-0-0-0-0-0-0-|-0-0-0-0-0-0-0-0-|
D |-----------------|-----------------|
A |-----------------|-----------------|
E |-----------------|-----------------|

e |-------------------|---------|-----------|---------|
B |-0-0-0-0-0-0-1-1^0-|-3-3-3-3-|-1-1-1-1^0-|-3-3-3-3-|
G |-0-0-0-0-0-0-0-0---|-0-0-0-0-|-0-0-0-0---|-2-2-2-2-|
D |-2-2---------------|---------|-----------|---------|
A |-----3-3-----------|-2-2-2-2-|-3-3-3-3---|---------|
E |---------3-3-2-2---|---------|-----------|-2-2-2-2-|

e |-------------------|---------|-----------|---------||
B |-0-0-0-0-0-0-1-1^0-|-3-3-3-3-|-1-1-1-1^0-|---3-----||
G |-0-0-0-0-0-0-0-0---|-0-0-0-0-|-0-0-0-0---|---2-----||
D |-2-2---------------|---------|-----------|---------||
A |-----3-3-----------|-2-2-2-2-|-3-3-3-3---|-2-------||
E |---------3-3-2-2---|---------|-----------|---------||

                                                Laisser sonner...

Paroles


Bon écoute-moi deux s'condes c'te plaît
J'en ai plein l'cul de tes conneries
Tu vois l'état dans l'quel ça t'met
Y a pas que toi que ça pourrit
Y a trop d'coups d'gueule pour que dalle
Y a plus de sourires ça me fait chier
Si tu cries pas c'est qu'tu râles
C'est qu'tu soupires, qu'tu traînes des pieds

Refrain :
C'est pas grand c'qu'on vit
C'est pas grand où on vit
On a grandi, on n'a qu'une vie
C'est pas grand c'qu'on vit
C'est pas grand où on vit
On a grandi, on n'a qu'une vie
C'est pas grand c'qu'on vit
C'est pas grand où on vit

J'sais plus depuis combien d'temps j'tiens
Mais là bientôt, j'serais plus capable
J'ai bien aimé jouer l'ange gardien
Essayer d'soigner c'qui t'accable
Mais j'connais pas toutes les réponses
Ceci dit tu m'demandes plus rien
Tu bouffes, tu chies, tu fumes, tu pionces
Je sais plus depuis combien d'temps j'tiens
Je sais plus depuis combien d'temps j'tiens
A me sentir aussi loin d'toi
Le soir quand je reviens
J'ai plus l'impression d'êtr' chez moi
On en a déjà eu des crises
Et je suis sûr qu'tu t'en souviens
Mais j'ai jamais fait mes valises
Je sais plus c'qui m'retiens

Refrain :
C'est pas grand c'qu'on vit
C'est pas grand où on vit
On a grandi, on n'a qu'une vie
C'est pas grand c'qu'on vit
C'est pas grand où on vit
On a grandi, on n'a qu'une vie
C'est pas grand c'qu'on vit
C'est pas grand où on vit

Mon copain, mon poteau, camarade, mon coloc'
Mon frangin, mon frérot, cafarde et débloque
Mon copain, mon poteau, mon ami de - toujours
Mon copain, mon poteau, camarade, mon coloc'
Mon frangin, mon frérot, cafarde et débloque
Mon copain, mon poteau, mon ami