Tabsvolo.net - Tablature : Un gars honnête


 Les tablatures : 68

Chanson française (2017)

Sans rire (2013)

C'est pas tout ça... (2010)

En attendant (2009)

Bref... Septembre 2008

  • Ma p'tite chanson
  • J'espère...
  • Bref

Jours heureux (2007)

Blancs Manteaux à Volo (2006)

Bien Zarbos (2004)

Tablature : Un gars honnête

21-10-2016

Partager cette tablature

Télécharger la version imprimable 


Ecouter un extrait composé de différentes parties de la tablature :



Légende :
||------|| (xN) : Jouer N fois la partie entre les ||
                 x : Etouffer les cordes
                 < : Slide vers le haut du manche


Intro :

     Dm               Gm6         Dm            Gm6
e ||--------5--x------x---------|--------5--x---------------x---|
B ||--------6--x------8---------|--------6--x------------8--x---|
G ||--------7--x------7---------|--------7--x---------7-----x--x|
D ||--------7--x--x---8---------|--------7--x--x---8--------x---|
A ||-5------5--x---7--7------7--|-5------5--x---7-----------x---|
E ||--------5--x------x-------8-|--------5--x---------------x---|


Couplets :

     Dm               Gm6          F              A
e ||--------5--x------x----------|--------1--x------5-------||
B ||--------6--x------8----------|--------1--x------5-------||
G ||--------7--x------7----------|--------2--x------6-------|| (x2)
D ||--------7--x--x---8----------|--------3--x------7-------||
A ||-5------5--x---7--7------7---|--------3--x--x---7----0--||
E ||--------5--x------x-------8<-|-1------1--x---5--5-----8-||

    A#                           A
e |--------6--x-x-----6---6-6--|--------5---------------x---|
B |--------6--x-x-----6---6-6--|--------5------------5--x---|
G |--------7--x-x-----7---7-7--|--------6---------6-----x---|
D |--------8--x-x-x---8---8-8-x|--------7------7--------x--x|
A |--------8--x-x-----8---8-8--|--------7---------------x---|
E |-6------6--x-x--6--6---6-6--|-5------5---------------x---|
    Dm               Gm6          F              A
e |--------5--x------x----------|--------1--x------5-------|
B |--------6--x------8----------|--------1--x------5-------|
G |--------7--x------7----------|--------2--x------6-------|
D |--------7--x--x---8----------|--------3--x------7-------|
A |-5------5--x---7--7------7---|--------3--x--x---7----0--|
E |--------5--x------x-------8<-|-1------1--x---5--5-----8-|

     Dm               Gm6          F              A
e ||--------5--x------x----------|--------1--x------5-------||
B ||--------6--x------8----------|--------1--x------5-------||
G ||--------7--x------7----------|--------2--x------6-------|| (x2)
D ||--------7--x--x---8----------|--------3--x------7-------||
A ||-5------5--x---7--7------7---|--------3--x--x---7----0--||
E ||--------5--x------x-------8<-|-1------1--x---5--5-----8-||

    A#                           A
e |--------6--x-x-----6---6-6--|--------5---------------x---|
B |--------6--x-x-----6---6-6--|--------5------------5--x---|
G |--------7--x-x-----7---7-7--|--------6---------6-----x---|
D |--------8--x-x-x---8---8-8-x|--------7------7--------x--x|
A |--------8--x-x-----8---8-8--|--------7---------------x---|
E |-6------6--x-x--6--6---6-6--|-5------5---------------x---|
    Dm               Gm6          F              A
e |--------5--x------x----------|--------1--x------5-------------|
B |--------6--x------8----------|--------1--x------5-------------|
G |--------7--x------7----------|--------2--x------6-------------|
D |--------7--x--x---8----------|--------3--x------7--------x---x|
A |-5------5--x---7--7------7---|--------3--x--x---7----x----7---|
E |--------5--x------x-------8<-|-1------1--x---5--5-----8-------|

Refrains :

    F                             C
e |--------1--x--------1---1-1--|--------0--x--------0---0-0--|
B |--------1--x--------1---1-1--|--------1--x--------1---1-1--|
G |--------2--x--x-----2---2-2--|--------0--x--x-----0---0-0--|
D |--------3--x--------3---3-3-0|--------2--x--------2---2-2-0|
A |--------3--x--------3---3-3--|-3------3--x---3----3---3-3--|
E |-1------1--x---1----1---1-1--|--------x--x--------x---x-x--|
    Gm                            A                  A7
e |--------3--x--------3---3-3--|--------0--x--------0---0-0--|
B |--------3--x--------3---3-3--|--------2--x--------2---2-2--|
G |--------3--x--x-----3---3-3--|--------2--x--x-----0---0-0--|
D |--------5--x--------5---5-5-0|--------2--x--------2---2-2-0|
A |--------5--x--------5---5-5--|-0------0--x---0----0---0-0--|
E |-3------3--x---3----3---3-3--|--------0--x--------0---0-0--|
    F                             C
e |--------1--x--------1---1-1--|--------0--x--------0---0-0--|
B |--------1--x--------1---1-1--|--------1--x--------1---1-1--|
G |--------2--x--x-----2---2-2--|--------0--x--x-----0---0-0--|
D |--------3--x--------3---3-3-0|--------2--x--------2---2-2-0|
A |--------3--x--------3---3-3--|-3------3--x---3----3---3-3--|
E |-1------1--x---1----1---1-1--|--------x--x--------x---x-x--|
    Gm                            A             Gm6
e |--------3--x--------3---3-3--|--------5--x-----------6--x---|
B |--------3--x--------3---3-3--|--------5--x-----------5--x---|
G |--------3--x--x-----3---3-3--|--------6--x-----------7--x---|
D |--------5--x--------5---5-5-0|--------7--x--x--------5--x--x|
A |--------5--x--------5---5-5--|--------7--x---5-------5--x---|
E |-3------3--x---3----3---3-3--|-5------5--x--------------x---|
    Dm               Gm6         Dm            Gm6
e |--------5--x------x---------|--------5--x---------------x---|
B |--------6--x------8---------|--------6--x------------8--x---|
G |--------7--x------7---------|--------7--x---------7-----x--x|
D |--------7--x--x---8---------|--------7--x--x---8--------x---|
A |-5------5--x---7--7------7--|-5------5--x---7-----------x---|
E |--------5--x------x-------8-|--------5--x---------------x---|

{ Couplet }


{ Refrain }


{ Couplet }


{ Refrain }


Fin :

    Dm
e |------5---------------------||
B |-----6----------------------||
G |----7-----------------------||
D |---7------------------------||
A |--5-------------------------||
E |-5--------------------------||


Paroles

Pardon, monsieur, excusez-moi
Depuis le temps qu'on se vouvoie
Je ne sais pas comment vous dire
C'est un hold-up sans vous faire rire
En vrai je suis un gars honnête mais, ...
En son pays nul n'est prophète et, j'ai des dettes

Comme je suis l'un de vos plus vieux client
Et qu'vous en avez eu pour votre argent
Depuis l'temps qu'j'investis tous mes rev'nus
Dans mon découvert et même au-d'ssus
En vrai je suis un gars honnête mais, ...
J'ai pas un stock d'option en tête et, j'ai des dettes

Faites-moi une espèce de vir'ment
Qui s'perd dans des îles Caïman
Un petit papier à signer, de mes salutations distinguées
Remplissez mon compte bancaire, de secrets que vous savez faire
C'est pas pour moi, faites-moi confiance,
J'vais tout donner à la croissance

Pardon, monsieur, encore une fois
Les mains en l'air, soyez sympa
C'est pas pour la beauté du geste
Si j'ai le masque d'un crash test
En vrai je suis un gars honnête mais ...
Sûr'ment pas autant que vous l'êtes et, j'ai des dettes

Si tout travail mérite salaire, dans votre monde des affaires,
Loin d'leur quantitative easing, moi j'viderais bien un revolving
En vrai je suis un gars honnête mais ...
C'est selon l'intention qu'on me prête et, j'ai des dettes

Faites-moi une espèce de vir'ment
Qui s'perd dans des îles Caïman
Un petit papier à signer, de mes salutations distinguées
Remplissez mon compte bancaire, de secrets que vous savez faire
C'est pas pour moi, faites-moi confiance,
J'vais tout donner à la croissance

Pardon monsieur et s'il vous plait
J'échang'rais dans votre intérêt
Contre la chambre de mon canon
Celles qui sont de compensation
En vrai je suis un gars honnête, mais ...
Ce qui vous remplit votre assiette, c'est mes dettes

Calculez-moi en équation
Vous verrez bien le résultat
Quand vous aurez fait l'addition
De tous les gars honnêtes comme moi
En son pays nul n'est prophète, mais ...
C'qui fait tourner toute la planète, c'est les dettes

 ner toute la planète : c'est les dettes