Tabsvolo.net - Tablature : Hier


 Les tablatures : 68

Chanson française (2017)

Sans rire (2013)

C'est pas tout ça... (2010)

En attendant (2009)

Bref... Septembre 2008

  • Ma p'tite chanson
  • J'espère...
  • Bref

Jours heureux (2007)

Blancs Manteaux à Volo (2006)

Bien Zarbos (2004)

Tablature : Hier

03-12-2016

Partager cette tablature

Télécharger la version imprimable 


Ecouter un extrait composé de différentes parties de la tablature :



Légende :
||------|| (xN) : Jouer N fois la partie entre les ||
                  t : taper sur les cordes avec la main droite (les ongles)

Intro :

     C#m                               F#m
e ||----------------|----------------|-------------------|-------------------|
B ||-----5---t----5-|-----5---t----5-|-----10---t-----10-|-----10---t-----10-|
G ||-----6---t----6-|-----6---t----6-|-----11---t-----11-|-----11---t-----11-|
D ||---------t--6---|---------t--6---|----------t--11----|----------t--11----|
A ||-4-------t------|-4-------t------|-0--------t--------|-0--------t--------|
E ||----------------|----------------|-------------------|-------------------|

    F#m                                     B
e |-------------------|-------------------|----------------|-------------------|
B |-----10---t-----10-|-----10---t--------|-----7---t----7-|-------------------|
G |-----11---t-----11-|-----11---t-----10-|-----8---t----8-|-------------------|
D |----------t--11----|----------t--11----|---------t------|-9-----------------|
A |-9--------t--------|-9--------t--------|---------t--9---|-------------------|
E |-------------------|-------------------|-7--------------|-------------------|


Couplets 1 et 2 :

     C#m                               F#m
e ||----------------|----------------|-------------------|-------------------|
B ||-----5---t----5-|-----5---t----5-|-----10---t-----10-|-----10---t-----10-|
G ||-----6---t----6-|-----6---t----6-|-----11---t-----11-|-----11---t-----11-|
D ||---------t--6---|---------t--6---|----------t--11----|----------t--11----|
A ||-4-------t------|-4-------t------|-0--------t--------|-0--------t--------|
E ||----------------|----------------|-------------------|-------------------|

    F#m                                     B
e |-------------------|-------------------|----------------|----------------||
B |-----10---t-----10-|-----10---t--------|-----7---t----7-|-----7---t----7-||
G |-----11---t-----11-|-----11---t-----10-|-----8---t----8-|-----8---t----8-|| (x2)
D |----------t--11----|----------t--11----|---------t------|-9-------t------||
A |-9--------t--------|-9--------t--------|---------t--9---|---------t--9---||
E |-------------------|-------------------|-7--------------|----------------||

    E                                 C#m
e |----------------|----------------|----------------|----------------|
B |-----0---t----0-|-----0---t----0-|-----5---t----5-|-----5---t----5-|
G |-----1---t----1-|-----1---t----1-|-----6---t----6-|-----6---t----6-|
D |---------t------|-2-------t------|---------t--6---|---------t--6---|
A |---------t--2---|---------t--2---|-4-------t------|-4-------t------|
E |-0--------------|----------------|----------------|----------------|

    B                                 F#m
e |----------------|----------------|-------------------|-------------------|
B |-----7---t----7-|-----7---t----7-|-----10---t-----10-|-----10---t-----10-|
G |-----8---t----8-|-----8---t----8-|-----11---t-----11-|-----11---t-----11-|
D |---------t------|-9-------t------|----------t--11----|----------t--11----|
A |---------t--9---|---------t--9---|-9--------t--------|-9--------t--------|
E |-7--------------|----------------|-------------------|-------------------|

    D                                         C#m
e |--------------------|--------------------|----------------|----------------|
B |------11---t-----11-|------11---t-----11-|-----5---t----5-|-----5---t----5-|
G |------12---t-----12-|------12---t-----12-|-----6---t----6-|-----6---t----6-|
D |-----------t--------|-12--------t--------|---------t--6---|---------t--6---|
A |-----------t--10----|-----------t--10----|-4-------t------|-4-------t------|
E |-10-----------------|--------------------|----------------|----------------|

    A                F#m                 B
e |----------------|-------------------|----------------|----------------|
B |-----5---t----5-|-----10---t-----10-|-----7---t----7-|----------------|
G |-----6---t----6-|-----11---t-----11-|-----8---t----8-|----------------|
D |---------t------|----------t--11----|---------t------|-9--------------|
A |---------t--7---|-9--------t--------|---------t--9---|----------------|
E |-5--------------|-------------------|-7--------------|----------------|

    C#m
e |----------------|----------------|----------------|----------------|
B |-----5---t----5-|-----5---t----5-|-----5---t----5-|----------------|
G |-----6---t----6-|-----6---t----6-|-----6---t----6-|----------------|
D |---------t--6---|---------t--6---|---------t--6---|----------------|
A |-4-------t------|-4-------t------|-4-------t------|-4--------------|
E |----------------|----------------|----------------|----------------|

Refrain 1 :

     A                E                B                C#m
e ||----------------|----------------|----------------|----------------||
B ||-----5---t----5-|-----0---t----0-|-----7---t----7-|-----5---t----5-||
G ||-----6---t----6-|-----1---t----1-|-----8---t----8-|-----6---t----6-|| (x3)
D ||---------t------|---------t------|---------t------|---------t--6---||
A ||---------t--7---|---------t--2---|---------t--9---|-4-------t------||
E ||-5--------------|-0--------------|-7--------------|----------------||

    A                E                G#m
e |----------------|----------------|--------------------|--------------------|
B |-----5---t----5-|-----0---t----0-|------12---t-----12-|------12---t-----12-|
G |-----6---t----6-|-----1---t----1-|------13---t-----13-|------13---t-----13-|
D |---------t------|---------t------|-----------t--13----|-----------t--13----|
A |---------t--7---|---------t--2---|-11--------t--------|-11--------t--------|
E |-5--------------|-0--------------|--------------------|--------------------|

    F#m
e |------------------|-------------------|
B |----10---t-----10-|-------------------|
G |----11---t-----11-|-------------------|
D |---------t--11----|-------------------|
A |-9-------t--------|-9-----------------|
E |------------------|-------------------|


{ Couplet 2 }


Refrain 2 :

     A                E                B                C#m
e ||----------------|----------------|----------------|----------------||
B ||-----5---t----5-|-----0---t----0-|-----7---t----7-|-----5---t----5-||
G ||-----6---t----6-|-----1---t----1-|-----8---t----8-|-----6---t----6-|| (x3)
D ||---------t------|---------t------|---------t------|---------t--6---||
A ||---------t--7---|---------t--2---|---------t--9---|-4-------t------||
E ||-5--------------|-0--------------|-7--------------|----------------||

    A                E                G#m
e |----------------|----------------|--------------------|--------------------|
B |-----5---t----5-|-----0---t----0-|------12---t-----12-|------12---t-----12-|
G |-----6---t----6-|-----1---t----1-|------13---t-----13-|------13---t-----13-|
D |---------t------|---------t------|-----------t--13----|-----------t--13----|
A |---------t--7---|---------t--2---|-11--------t--------|-11--------t--------|
E |-5--------------|-0--------------|--------------------|--------------------|

    B
e |----------------|------7---------|
B |-----7---t----7-|-----7----------|
G |-----8---t----8-|----8-----------|
D |---------t------|---9------------|
A |---------t--9---|--9-------------|
E |-7--------------|-7--------------|


Couplet 3 :


    F#m
e |-------------------|-------------------|-------------------|-------------------|
B |-----10---t-----10-|-----10---t-----10-|-----10---t-----10-|-----10---t-----10-|
G |-----11---t-----11-|-----11---t-----11-|-----11---t-----11-|-----11---t-----11-|
D |----------t--11----|----------t--11----|----------t--11----|----------t--11----|
A |-9--------t--------|-9--------t--------|-9--------t--------|-9--------t--------|
E |-------------------|-------------------|-------------------|-------------------|

    C#m
e |----------------|----------------|----------------|----------------|
B |-----5---t----5-|-----5---t----5-|-----5---t----5-|-----5---t----5-|
G |-----6---t----6-|-----6---t----6-|-----6---t----6-|-----6---t----6-|
D |---------t--6---|---------t--6---|---------t--6---|---------t--6---|
A |-4-------t------|-4-------t------|-4-------t------|-4-------t------|
E |----------------|----------------|----------------|----------------|

    E
e |----------------|----------------|----------------|----------------|
B |-----0---t----0-|-----0---t----0-|-----0---t----0-|-----0---t----0-|
G |-----1---t----1-|-----1---t----1-|-----1---t----1-|-----1---t----1-|
D |---------t------|-2-------t------|---------t------|-2-------t------|
A |---------t--2---|---------t--2---|---------t--2---|---------t--2---|
E |-0--------------|----------------|-0--------------|----------------|

    B
e |----------------|----------------|----------------|----------------|
B |-----7---t----7-|-----7---t----7-|-----7---t----7-|-----7---t----7-|
G |-----8---t----8-|-----8---t----8-|-----8---t----8-|-----8---t----8-|
D |---------t------|-9-------t------|---------t------|-9-------t------|
A |---------t--9---|---------t--9---|---------t--9---|---------t--9---|
E |-7--------------|----------------|-7--------------|----------------|

    A
e |----------------|----------------|----------------|----------------|
B |-----5---t----5-|-----5---t----5-|-----5---t----5-|-----5---t----5-|
G |-----6---t----6-|-----6---t----6-|-----6---t----6-|-----6---t----6-|
D |---------t------|-7-------t------|---------t------|-7-------t------|
A |---------t--7---|---------t--7---|---------t--7---|---------t--7---|
E |-5--------------|----------------|-5--------------|----------------|

    C#m
e |----------------|----------------|----------------|----------------|
B |-----5---t----5-|-----5---t----5-|-----5---t----5-|-----5---t----5-|
G |-----6---t----6-|-----6---t----6-|-----6---t----6-|-----6---t----6-|
D |---------t--6---|---------t--6---|---------t--6---|---------t--6---|
A |-4-------t------|-4-------t------|-4-------t------|-4-------t------|
E |----------------|----------------|----------------|----------------|

    E
e |----------------|----------------|----------------|----------------|
B |-----0---t----0-|-----0---t----0-|-----0---t----0-|-----0---t----0-|
G |-----1---t----1-|-----1---t----1-|-----1---t----1-|-----1---t----1-|
D |---------t------|-2-------t------|---------t------|-2-------t------|
A |---------t--2---|---------t--2---|---------t--2---|---------t--2---|
E |-0--------------|----------------|-0--------------|----------------|

    B
e |----------------|----------------|----------------|----------------|
B |-----7---t----7-|-----7---t----7-|-----7---t----7-|-----7---t----7-|
G |-----8---t----8-|-----8---t----8-|-----8---t----8-|-----8---t----8-|
D |---------t------|-9-------t------|---------t------|-9-------t------|
A |---------t--9---|---------t--9---|---------t--9---|---------t--9---|
E |-7--------------|----------------|-7--------------|----------------|

    A
e |----------------|----------------|----------------|----------------|
B |-----5---t----5-|-----5---t----5-|-----5---t----5-|-----5---t----5-|
G |-----6---t----6-|-----6---t----6-|-----6---t----6-|-----6---t----6-|
D |---------t------|-7-------t------|---------t------|-7-------t------|
A |---------t--7---|---------t--7---|---------t--7---|---------t--7---|
E |-5--------------|----------------|-5--------------|----------------|

    C#m
e |----------------|----------------|----------------|----------------|
B |-----5---t----5-|-----5---t----5-|-----5---t----5-|-----5---t----5-|
G |-----6---t----6-|-----6---t----6-|-----6---t----6-|-----6---t----6-|
D |---------t--6---|---------t--6---|---------t--6---|---------t--6---|
A |-4-------t------|-4-------t------|-4-------t------|-4-------t------|
E |----------------|----------------|----------------|----------------|

    E                                 D
e |----------------|----------------|--------------------|--------------------|
B |-----0---t----0-|-----0---t----0-|------10---t-----10-|------10---t-----10-|
G |-----1---t----1-|-----1---t----1-|------11---t-----11-|------11---t-----11-|
D |---------t------|-2-------t------|-----------t--------|-12--------t--------|
A |---------t--2---|---------t--2---|-----------t--12----|-----------t--12----|
E |-0--------------|----------------|-10-----------------|--------------------|

    A                F#m                 B
e |----------------|-------------------|----------------|----------------|---------------|
B |-----5---t----5-|-----10---t-----10-|-----7---t----7-|-----7---t----7-|---------------|
G |-----6---t----6-|-----11---t-----11-|-----8---t----8-|-----8---t----8-|---------------|
D |---------t------|----------t--11----|---------t------|-9-------t------|---------------|
A |---------t--7---|-9--------t--------|---------t--9---|---------t--9---|---------------|
E |-5--------------|-------------------|-7--------------|----------------|-7-------------|

    C#m
e |----------------|----------------|----------------|----------------|
B |-----5---t----5-|-----5---t----5-|-----5---t----5-|----------------|
G |-----6---t----6-|-----6---t----6-|-----6---t----6-|----------------|
D |---------t--6---|---------t--6---|---------t--6---|----------------|
A |-4-------t------|-4-------t------|-4-------t------|-4--------------|
E |----------------|----------------|----------------|----------------|

{ Refrain 1 }

Fin :


     C#m
e ||----------------|----------------|----------------|----------------||
B ||-----5---t----5-|-----5---t----5-|-----5---t----5-|-----5---t----5-||
G ||-----6---t----6-|-----6---t----6-|-----6---t----6-|-----6---t----6-|| (x3)
D ||---------t--6---|---------t--6---|---------t--6---|---------t--6---||
A ||-4-------t------|-4-------t------|-4-------t------|-4-------t------||
E ||----------------|----------------|----------------|----------------||

    C#m
e |----------------|----------------|----------------|----------------||
B |-----5---t----5-|-----5---t----5-|-----5---t----5-|----------------||
G |-----6---t----6-|-----6---t----6-|-----6---t----6-|----------------||
D |---------t--6---|---------t--6---|---------t--6---|----------------||
A |-4-------t------|-4-------t------|-4-------t------|-4--------------||
E |----------------|----------------|----------------|----------------||



Paroles

C'est comme si c'était hier
Sur la place de mon village
Cette journée particulière
Pour tous les jeunes de mon âge

C'est comme si c'était hier
Une petite fête forraine
Musique forte et jeux de lumières
Pour que nos vies soient mise en scène

C'est comme si c'était hier
Faisant faire aux plux courageuses
Des tours sur les banquettes arrière
De nos auto-tamponeuses

C'est comme si c'était hier
A celle qui s'rait la plus jolie
A celui qui pourrait se dire que c'est la première
La première fois de sa vie


Refrain :

Quand c'est la vitesse de ma langue
Qui tourne dans ta bouche
Quand c'est nos appreils dentaires qui se touchent
Quand c'est mes yeux qui louchent

Quand c'est la vitesse de ta langue
Qui tourne dans ma bouche
Quand c'est nos appreils dentaires qui se touchent
Quand c'est tes yeux qui louchent


C'est comme si c'était hier
Les coupes en brosse sur le front
Les cheveux mi-longs derrière
Et chacun sa guerre des boutons

C'est comme si c'était hier
Pareil aux posters sur nos murs
Le look, le style et les manières
De nos retour vers le futur

C'est comme si c'était hier
Le peu d'argent de poche qu'on a
Pour inviter la terre entière
Autour de ma barbapapa

C'est comme si c'était hier
A celle qui serait la plus belle
A celui qui pourrait se dire que c'est la première
Première fois qu'il roule une pelle


{ Refrain }


C'est comme si c'était hier
Passant par ta meilleure copine
Celle qui joue les intermédiaires
Pour tout ce qu'on se baratine

C'est comme si c'était hier
Essayant de me rapprocher
Puisce que cette heure est la dernière
Avant que ta mère vienne te chercher

C'est comme si c'était hier
Quand je me lance et te bégaille
Un rendez-vous près du cim'tière
Loin de tous ceux qui nous surveillent

C'est comme si c'était hier
Sans savoir ce qu'on fait maint'nant
Donner des coups d'pieds dans une pierre
Plutôt que d'partir en courant

C'est comme si c'était hier
Tell'ment nos geste sont génés
De mon menton à tes paupières
En se donnant des coups de nez

C'est comme si c'était hier
Avec toi qui m'auras permis
D'être celui qui a pu se dire que c'est la première
La première fois de ma vie


{ Refrain }


C'est comme si c'était hier...