Tabsvolo.net - Tablature : Anvers


 Les tablatures : 68

Chanson française (2017)

Sans rire (2013)

C'est pas tout ça... (2010)

En attendant (2009)

Bref... Septembre 2008

  • Ma p'tite chanson
  • J'espère...
  • Bref

Jours heureux (2007)

Blancs Manteaux à Volo (2006)

Bien Zarbos (2004)

Tablature : Anvers

Télécharger la version imprimable
Légende :
= : Slide vers le haut du manche
^ : Pull-off ou Pull-on (ici : Pull-off)

Refrain 1,2,3,4 :
     Em        C   Am      Em        C   Am
e ||---------|-----------|---------|-----------||
B ||---0---0-|---1---1^0-|---0---0-|---1---1^0-||
G ||---0---0-|---0---2---|---0---0-|---0---2---|| (x2)
D ||---------|-----------|---------|-----------||
A ||-----2---|-3---0-----|-----2---|-3---0-----||
E ||-0-------|-----------|-0-------|-----------||


Couplet 1,3,4 :
     Em        C   Am      Em        C   Am
e ||---------|-----------|---------|-----------||
B ||---0---0-|---1---1^0-|---0---0-|---1---1^0-||
G ||---0---0-|---0---2---|---0---0-|---0---2---||
D ||---------|-----------|---------|-----------||
A ||-----2---|-3---0-----|-----2---|-3---0-----||
E ||-0-------|-----------|-0-------|-----------||

     Em        C   Am      Em         C   Am
e ||---------|-----------|----------|-----------||
B ||---0---0-|---1---1^0-|---0------|-1-----1^0-||
G ||---0---0-|---0---2---|---0------|-0-----2---||
D ||---------|-----------|----------|-----------||
A ||-----2---|-3---0-----|----------|-3---0-----||
E ||-0-------|-----------|-0---12=--|-----------||


Couplet 2 :
     Em        C   Am      Em        C   Am
e ||---------|-----------|---------|-----------||
B ||---0---0-|---1---1^0-|---0---0-|---1---1^0-||
G ||---0---0-|---0---2---|---0---0-|---0---2---||
D ||---------|-----------|---------|-----------||
A ||-----2---|-3---0-----|-----2---|-3---0-----||
E ||-0-------|-----------|-0-------|-----------||

     Em        C   Am      Em         C   Am
e ||---------|-----------|----------|-----------||
B ||---0---0-|---1---1^0-|---0---0--|-1-----1^0-||
G ||---0---0-|---0---2---|---0---0--|-0-----2---||
D ||---------|-----------|----------|-----------||
A ||-----2---|-3---0-----|-----2----|-3---0-----||
E ||-0-------|-----------|-0--------|-----------||


Dernier refrain:
    Em        C   Am      Em        C   Am
e |---------|-----------|---------|-----------|
B |---0---0-|---1---1^0-|---0---0-|---1---1^0-|
G |---0---0-|---0---2---|---0---0-|---0---2---|
D |---------|-----------|---------|-----------|
A |-----2---|-3---0-----|-----2---|-3---0-----|
E |-0-------|-----------|-0-------|-----------|

    Em        C   Am      Em        Em
e |---------|-----------|---------|-0---------||
B |---0---0-|---1---1^0-|---0---0-|-0---------||
G |---0---0-|---0---2---|---0---0-|-0---------||
D |---------|-----------|---------|-2---------||
A |-----2---|-3---0-----|-----2---|-2---------||
E |-0-------|-----------|-0-------|-0---------||

Paroles


Le soleil se couche sur Anvers
On m'a roué de coups
Dépouillé de toutes mes affaires
Ca m'a fait un bien fou
Le soleil se couche sur Anvers
On m'a roué de coups
Dépouillé de toutes mes affaires
Ca m'a fait un bien fou

L'arrivée en Belgique, j'étais déjà venu
Que tu me quittes on m'avait pas prévenu
Là où c'est bien pérave c'est que c'est sur une lettre
Que tu as marqué 'tu m'gaves, on se reverra peut-être'

Le soleil se couche sur Anvers
On m'a roué de coups
Dépouillé de toutes mes affaires
Ca m'a fait un bien fou
Le soleil se couche sur Anvers
On m'a roué de coups
Dépouillé de toutes mes affaires
Ca m'a fait un bien fou

J'ai pas su faire grand-chose, t'es pas là je me casse
Dans un bar je m'assoie je pleure j'implose
Et bien vingt bonnes minutes se passent
Je m'accoude au comptoir, je sors mes cigarettes
Et je commence à boire, à me fracasser la tête

Le soleil se couche sur Anvers
On m'a roué de coups
Dépouillé de toutes mes affaires
Ca m'a fait un bien fou
Le soleil se couche sur Anvers
On m'a roué de coups
Dépouillé de toutes mes affaires
Ca m'a fait un bien fou

Au bout d'un petit moment, j'ai envie d'me confier
Je ne parle pas flamand, pas envie d'me faire chier
Mais j'ai dû mal m'y prendre,
on me répond bête, on ne me répond pas
Mais on me fait comprendre
que j'ai pas la bonne tête, que j'ai rien à foutr' là

Le soleil se couche sur Anvers
On m'a roué de coups
Dépouillé de toutes mes affaires
Ca m'a fait un bien fou
Le soleil se couche sur Anvers
On m'a roué de coups
Dépouillé de toutes mes affaires
Ca m'a fait un bien fou

J'ai bien trop bu c'est sûr, j'suis un peu con, j'insiste
On me montre que partout sur les murs
c'est des injures des slogans fascistes
Là j'ai pété mon câble besoin de réconfort
J'ai renversé une table et gueulé 'un bon faf est un faf mort'

Le soleil se couche sur Anvers
On m'a roué de coups
Dépouillé de toutes mes affaires
Ca m'a fait un bien fou
Aux adorateurs d'Hitler
Obligé je l'avoue
Qu'la prochaine fois qu'je désespère
Je leur donne rendez-vous