Tabsvolo.net - Tablature : Dimanche


 Les tablatures : 68

Chanson française (2017)

Sans rire (2013)

C'est pas tout ça... (2010)

En attendant (2009)

Bref... Septembre 2008

  • Ma p'tite chanson
  • J'espère...
  • Bref

Jours heureux (2007)

Blancs Manteaux à Volo (2006)

Bien Zarbos (2004)

Tablature : Dimanche

Rev. 03 | 24-09-2010

Partager cette tablature





Ecouter un extrait composé de différentes parties de la tablature :

Intro :
   C#m       G#m         C#m      F#m       E       B         G#
e |---------|-----------|--------|---------|-------|---------|-------|---------|
B |---5---5-|--12----12-|-5----5-|-10---10-|-0---0-|---7---7-|-4---4-|---4---4-|
G |---6---6-|--13----13-|-6----6-|-11---11-|-1---1-|---8---8-|-5---5-|---5---5-|
D |-----6---|-----13----|----6---|----11---|-------|---------|-------|-6-------|
A |-4-------|11---------|4-------|9--------|---2---|-----9---|---6---|-----6---|
E |---------|-----------|--------|---------|0------|-7-------|4------|---------|


Couplets :
   C#m       G#m         C#m      F#m       E       B         G#
e |---------|-----------|--------|---------|-------|---------|-------|---------|
B |---5---5-|--12----12-|-5----5-|-10---10-|-0---0-|---7---7-|-4---4-|---4---4-|
G |---6---6-|--13----13-|-6----6-|-11---11-|-1---1-|---8---8-|-5---5-|---5---5-| x2
D |-----6---|-----13----|----6---|----11---|-------|---------|-------|-6-------|
A |-4-------|11---------|4-------|9--------|---2---|-----9---|---6---|-----6---|
E |---------|-----------|--------|---------|0------|-7-------|4------|---------|
  Si j'nous...



Refrain :
   E                  F#m6                C#m               B
e |---------|--------|---------|---------|--------|--------|--------|--------|
B |---0---0-|--0---0-|---7---7-|---7---7-|--5---5-|--5---5-|--7---7-|--7---7-|
G |---1---1-|--1---1-|---6---6-|---6---6-|--6---6-|--6---6-|--8---8-|--8---8-|
D |---------|--------|-----7---|-----7---|----6---|----6---|--------|--------|
A |-----2---|-----2--|-6-------|-6-------|4-------|4-------|----9---|----9---|
E |-0-------|-0------|---------|---------|--------|--------|7-------|7-------|
  Et le dimanche...

   F#m                    A                   E                 B
e |-----------|----------|---------|---------|--------|--------|--------|--------|
B |---10---10-|--10---10-|---5---5-|---5---5-|--0--0--|--0--0--|--7---7-|--7---7-|
G |---11---11-|--11---11-|---6---6-|---6---6-|--1--1--|--1--1--|--8---8-|--8---8-|
D |------11---|-----11---|---------|---------|--------|--------|--------|--------|
A |-9---------|9---------|-----7---|-----7---|----2---|----2---|----9---|----9---|
E |-----------|----------|-5-------|-5-------|-0------|-0------|7-------|7-------|
  Et le dimanche...


2ème couplet, 2ème refrain, 3ème couplet et 3ème refrain en rythmique Frédoïenne... Avec les mêmes accords que pour les arpèges.


Fin :
   C#m       G#m         C#m      F#m       E       B         G#
e |---------|-----------|--------|---------|-------|---------|-------|---------|
B |---5---5-|--12----12-|-5----5-|-10---10-|-0---0-|---7---7-|-4---4-|---4---4-|
G |---6---6-|--13----13-|-6----6-|-11---11-|-1---1-|---8---8-|-5---5-|---5---5-|
D |-----6---|-----13----|----6---|----11---|-------|---------|-------|-6-------|
A |-4-------|11---------|4-------|9--------|---2---|-----9---|---6---|-----6---|
E |---------|-----------|--------|---------|0------|-7-------|4------|---------|
  Si j'nous résume...


   A                  F#m               F#m6                B
e |-5----------------|-9---------------|-------------------|--7-7-...
B |-5----------------|-10--------------|-7-----------------|--7-7-... Après, ça part en
G |-6----------------|-11--------------|-6-----------------|--8-8-... ryhtmique sur le B
D |-7----------------|-11--------------|-7-----------------|--9-9-... pour lancer le
A |-7----------------|-9---------------|-6-----------------|--9-9-... refrain...
E |-5----------------|-9---------------|-------------------|--7-7-...
  Et le dimanche...

La fin se joue en Rythmique et sur les accords du refrain.

Paroles


Si j'nous résume quand il fait beau
Quand il fait gris ça marche aussi
Si c'est l'hiver les gros manteaux plutôt l'après midi
Si j'nous résume quand on se compte
Parents, frangins, nous les enfants
Des gens qui s'aiment qui se racontent de temps en temps

Et le dimanche on se promène mains dans les poches
Si loin si proche de la semaine prochaine
(x2)

Si j'nous résume c'est des p'tits ch'mins
De la forêt, le bord d'un lac
Les centres villes, les places, les jardins, les parcs
Si j'nous résume c'est du vélo
Une bande de potes, un cerf-volant
Un bord de mer, les pieds dans l'eau de temps en temps

Et le dimanche on se promène mains dans les poches
Si loin si proche de la semaine prochaine
(x2)

Si j'nous résume ça fait du bien
De se retrouver, en accolade
A discuter de tout de rien le chien la balle et la ballade
Si j'nous résume on se sourit
Quand on se croise c'est souvent
Des gens différents en toute une vie de temps en temps

Et le dimanche on se promène mains dans les poches
Si loin si proche de la semaine prochaine
(x2)

Si j'nous résume quand il fait beau
Parents, frangins, nous les enfants
Un bord de mer, les pieds dans l'eau de temps en temps

Et le dimanche on se promène mains dans les poches
Si loin si proche de la semaine prochaine

Tu tu tu ..........................



Bonus : Le Clip