Tabsvolo.net - Tablature : Elisa


 Les tablatures : 68

Chanson française (2017)

Sans rire (2013)

C'est pas tout ça... (2010)

En attendant (2009)

Bref... Septembre 2008

  • Ma p'tite chanson
  • J'espère...
  • Bref

Jours heureux (2007)

Blancs Manteaux à Volo (2006)

Bien Zarbos (2004)

Tablature : Elisa

Télécharger la version imprimable




Ecouter un extrait composé de différentes parties de la tablature :


Couplet 1,2,3 :
    C     Em6   Am   G     Dm    A     F     G
e |--------------------3------------------------3-|
B |---1-----1-----1----0-----6-----5-----10-----3-|
G |---0-----0-----2----0-----7-----6-----10-----4-| 2x
D |---2-----2-----2----0-----7-----7-----10-----5-|
A |-3-----2-----0----------5-----------8----------|
E |------------------3-----------5------------3---|


Refrain :
    Am    Em    Am    Em    F     C7     G
e |-----------------------------------------------|
B |---1-----0-----1-----0-----1-----3-----0-----0-|
G |---2-----0-----2-----0-----2-----0-----0-----0-|
D |---2-----2-----2-----2-----3-----2-----0-----0-|
A |-0-----------0-----------------3-----------2---|
E |-------0-----------0-----1-----------3---------|


    Am    Em    Am    Em    F     C     G
e |-----------------------------------------------|
B |---1-----0-----1-----0-----1-----1-----0-----0-|
G |---2-----0-----2-----0-----2-----0-----0-----0-|
D |---2-----2-----2-----2-----3-----2-----0-----0-|
A |-0-----------0-----------------3-----------2---|
E |-------0-----------0-----1-----------3---------|


Couplet 4 :
    C     Em6   Am   G     Dm    A     F     G
e |--------------------3------------------------3-|
B |--------------------0-----6-----5-----10-----3-|
G |--------------------0-----7-----6-----10-----4-|
D |--------------------0-----7-----7-----10-----5-|
A |-3-----2-----0----------5-----------8----------|
E |------------------3-----------5------------3---|

    C     Em6   Am   G     Dm    A     F     G
e |--------------------3------------------------3-|
B |---1-----1-----1----0-----6-----5-----10-----3-|
G |---0-----0-----2----0-----7-----6-----10-----4-|
D |---2-----2-----2----0-----7-----7-----10-----5-|
A |-3-----2-----0----------5-----------8----------|
E |------------------3-----------5------------3---|


Refrain...

Paroles


C'est juste un p'tit boulot
Pour un p'tit peu d'pognon
Sortir la tête de l'eau
Sans se manger d'camion
Ca roule vite sur l'trottoir
Et même en contre-sens
Ca bosse le samedi soir
Pendant que certains dansent

Je suis
Livreur de pizzas
Et c'est pas par envie
Mais
Les yeux d'Elisa
Ce s'ra pour toute ma vie
x2

C'est derrière le comptoir
Qu'elle prépare les pizzas
Le con qui sert à boire
C'est le chef d'Elisa
Si il est très vénère
C'est qu'il se l'est mangé
Son gros râteau sa mère
En voulant l'embrasser

Je suis
Livreur de pizzas
Et c'est pas par envie
Mais
Les yeux d'Elisa
Ce s'ra pour toute ma vie
x2

C'est tout le magasin
Qui est amoureux d'elle
Ses amis ses voisins
Se sont brûlés les ailes
En ce qui me concerne
J'ai toujours rien tenté
Pour l'instant je discerne
Rêve et réalité

Je suis
Livreur de pizzas
Et c'est pas par envie
Mais
Les yeux d'Elisa
Ce s'ra pour toute ma vie
x2

Quand parfois on se touche
Les mains pour un crayon
Pour écarter une mouche
On se dit pardon
C'est souvent qu'elle se marre
C'est souvent que j'rougis
Mais à chaque fois qu'j'repars
Je l'imagine qui m'suis

Je suis
Livreur de pizzas
Et c'est pas par envie
Mais
Les yeux d'Elisa
Ce s'ra pour toute ma vie
...