Tabsvolo.net - Tablature : Surtout


 Les tablatures : 68

Chanson française (2017)

Sans rire (2013)

C'est pas tout ça... (2010)

En attendant (2009)

Bref... Septembre 2008

  • Ma p'tite chanson
  • J'espère...
  • Bref

Jours heureux (2007)

Blancs Manteaux à Volo (2006)

Bien Zarbos (2004)

Tablature : Surtout

08-12-2016

Partager cette tablature

Télécharger la version imprimable 


Ecouter un extrait composé de différentes parties de la tablature :



Légende :
||------|| (xN) : Jouer N fois la partie entre les ||
           C (E) : Nom de l'accord par rapport au capo (Nom de l'accord joué)

Aide et conseils :
En concert, Frédo s'amuse plus avec les variations d'accord (Jouer de l'index sur les Am, C... pour les changer en Asus2, CM7... Comme sur l'intro). Notamment sur le refrain.

Capo 4

Intro :

     Asus2 (C#sus2)                  CM7 (EM7)

          Am (C#m)   Asus2 (C#sus2)       C (E)      CM7 (EM7)
e ||-0----0-0-0-0----0-0-0-0-0-0-0-|-0----0-0-0-0----0-0-0-0-0-0---|
B ||-0----1-1-1-1--^-0-0-0-0-0-0-0-|-0----1-1-1-1--^-0-0-0-0-0-0---|
G ||-2----2-2-2-2----2-2-2-2-2-2-2-|-0----0-0-0-0----0-0-0-0-0-0---|
D ||-2----2-2-2-2----2-2-2-2-2-2-2-|-2----2-2-2-2----2-2-2-2-2-2-0-|
A ||-0----0-0-0-0----0-0-0-0-0-0-0-|-3----3-3-3-3----3-3-3-3-3-3-0-|
E ||-------------------------------|-----------------------------0-|

    Em (G#m)                        G6 (B6)

         Em7 (G#m7) Em (G#m)             CM9 (EM9)  G6 (B6)
e |------0-0-0-0----0-0-0-0-0-0---|------0-0-0-0----0-0-0-0-0-0-0-||
B |------1-1-1-1--^-0-0-0-0-0-0---|------1-1-1-1--^-0-0-0-0-0-0-0-||
G |------0-0-0-0----0-0-0-0-0-0---|------0-0-0-0----0-0-0-0-0-0-0-|| (x2)
D |-2----2-2-2-2----2-2-2-2-2-2-0-|-0----0-0-0-0----0-0-0-0-0-0-0-||
A |-2----2-2-2-2----2-2-2-2-2-2-0-|-2----2-2-2-2----2-2-2-2-2-2-2-||
E |-0---------------------------0-|-3-----------------------------||


Couplets 1 et 2 :

     Asus2 (C#sus2)                  CM7 (EM7)

          Am (C#m)   Asus2 (C#sus2)       C (E)      CM7 (EM7)
e ||-0----0-0-0-0----0-0-0-0-0-0-0-|-0----0-0-0-0----0-0-0-0-0-0---|
B ||-0----1-1-1-1--^-0-0-0-0-0-0-0-|-0----1-1-1-1--^-0-0-0-0-0-0---|
G ||-2----2-2-2-2----2-2-2-2-2-2-2-|-0----0-0-0-0----0-0-0-0-0-0---|
D ||-2----2-2-2-2----2-2-2-2-2-2-2-|-2----2-2-2-2----2-2-2-2-2-2-0-|
A ||-0----0-0-0-0----0-0-0-0-0-0-0-|-3----3-3-3-3----3-3-3-3-3-3-0-|
E ||-------------------------------|-----------------------------0-|

    Em (G#m)                        G6 (B6)

         Em7 (G#m7) Em (G#m)             CM9 (EM9)  G6 (B6)
e |------0-0-0-0----0-0-0-0-0-0---|------0-0-0-0----0-0-0-0-0-0-0-||
B |------1-1-1-1--^-0-0-0-0-0-0---|------1-1-1-1--^-0-0-0-0-0-0-0-||
G |------0-0-0-0----0-0-0-0-0-0---|------0-0-0-0----0-0-0-0-0-0-0-|| (x2)
D |-2----2-2-2-2----2-2-2-2-2-2-0-|-0----0-0-0-0----0-0-0-0-0-0-0-||
A |-2----2-2-2-2----2-2-2-2-2-2-0-|-2----2-2-2-2----2-2-2-2-2-2-2-||
E |-0---------------------------0-|-3-----------------------------||


Refrain :

    F (A)                           Am (C#m)
e |-1----1-1-1-1----1-1-1-1-1-1-1-|-0----0-0-0-0----0-0-0-0-0-0-0-|
B |-1----1-1-1-1----1-1-1-1-1-1-1-|-1----1-1-1-1----1-1-1-1-1-1-1-|
G |-2----2-2-2-2----2-2-2-2-2-2-2-|-2----2-2-2-2----2-2-2-2-2-2-2-|
D |-3----3-3-3-3----3-3-3-3-3-3-3-|-2----2-2-2-2----2-2-2-2-2-2-2-|
A |-3----3-3-3-3----3-3-3-3-3-3-3-|-0----0-0-0-0----0-0-0-0-0-0-0-|
E |-1----1-1-1-1----1-1-1-1-1-1-1-|-------------------------------|

    C (E)                           G (B)
e |-0----0-0-0-0----0-0-0-0-0-0-0-|------3-3-3-3----3-3-3-3-3-3-3-|
B |-1----1-1-1-1----1-1-1-1-1-1-1-|------0-0-0-0----0-0-0-0-0-0-0-|
G |-0----0-0-0-0----0-0-0-0-0-0-0-|------0-0-0-0----0-0-0-0-0-0-0-|
D |-2----2-2-2-2----2-2-2-2-2-2-2-|-0----0-0-0-0----0-0-0-0-0-0-0-|
A |-3----3-3-3-3----3-3-3-3-3-3-3-|-2----2-2-2-2----2-2-2-2-2-2-2-|
E |-------------------------------|-3-----------------------------|

    F (A)                           Am (C#m)
e |-1----1-1-1-1----1-1-1-1-1-1-1-|-0----0-0-0-0----0-0-0-0-0-0-0-|
B |-1----1-1-1-1----1-1-1-1-1-1-1-|-1----1-1-1-1----1-1-1-1-1-1-1-|
G |-2----2-2-2-2----2-2-2-2-2-2-2-|-2----2-2-2-2----2-2-2-2-2-2-2-|
D |-3----3-3-3-3----3-3-3-3-3-3-3-|-2----2-2-2-2----2-2-2-2-2-2-2-|
A |-3----3-3-3-3----3-3-3-3-3-3-3-|-0----0-0-0-0----0-0-0-0-0-0-0-|
E |-1----1-1-1-1----1-1-1-1-1-1-1-|-------------------------------|

    G (B)                           G (B)
e |------3-3-3-3----3-3-3-3-3-3---|------3-3-3-3----3-3-3-3-3-3-3-|
B |------0-0-0-0----0-0-0-0-0-0---|------0-0-0-0----0-0-0-0-0-0-0-|
G |------0-0-0-0----0-0-0-0-0-0---|------0-0-0-0----0-0-0-0-0-0-0-|
D |-0----0-0-0-0----0-0-0-0-0-0-0-|-0----0-0-0-0----0-0-0-0-0-0-0-|
A |-2----2-2-2-2----2-2-2-2-2-2-2-|-2----2-2-2-2----2-2-2-2-2-2-2-|
E |-3---------------------------3-|-3-----------------------------|



    Asus2 (C#sus2)                  CM7 (EM7)

         Am (C#m)   Asus2 (C#sus2)       C (E)      CM7 (EM7)
e |-0----0-0-0-0----0-0-0-0-0-0-0-|-0----0-0-0-0----0-0-0-0-0-0---|
B |-0----1-1-1-1--^-0-0-0-0-0-0-0-|-0----1-1-1-1--^-0-0-0-0-0-0---|
G |-2----2-2-2-2----2-2-2-2-2-2-2-|-0----0-0-0-0----0-0-0-0-0-0---|
D |-2----2-2-2-2----2-2-2-2-2-2-2-|-2----2-2-2-2----2-2-2-2-2-2-0-|
A |-0----0-0-0-0----0-0-0-0-0-0-0-|-3----3-3-3-3----3-3-3-3-3-3-0-|
E |-------------------------------|-----------------------------0-|

    Em (G#m)                        G6 (B6)

         Em7 (G#m7) Em (G#m)             CM9 (EM9)  G6 (B6)
e |------0-0-0-0----0-0-0-0-0-0---|------0-0-0-0----0-0-0-0-0-0-0-|
B |------1-1-1-1--^-0-0-0-0-0-0---|------1-1-1-1--^-0-0-0-0-0-0-0-|
G |------0-0-0-0----0-0-0-0-0-0---|------0-0-0-0----0-0-0-0-0-0-0-|
D |-2----2-2-2-2----2-2-2-2-2-2-0-|-0----0-0-0-0----0-0-0-0-0-0-0-|
A |-2----2-2-2-2----2-2-2-2-2-2-0-|-2----2-2-2-2----2-2-2-2-2-2-2-|
E |-0---------------------------0-|-3-----------------------------|


{ Couplet 2 }


{ Refrain }


Couplet 3 :

     Am (C#m)                       Am (C#m)
e ||-0---0-0-0-0----0-0-0-0-0-0-0-|-0----0-0-0-0----0-0-0-0-0-0-0-|
B ||-1---1-1-1-1----1-1-1-1-1-1-1-|-1----1-1-1-1----1-1-1-1-1-1-1-|
G ||-2---2-2-2-2----2-2-2-2-2-2-2-|-2----2-2-2-2----2-2-2-2-2-2-2-|
D ||-2---2-2-2-2----2-2-2-2-2-2-2-|-2----2-2-2-2----2-2-2-2-2-2-2-|
A ||------------------------------|-------------------------------|
E ||------------------------------|-------------------------------|

    C (E)                           G (B)
e |-0----0-0-0-0----0-0-0-0-0-0-0-|------3-3-3-3----3-3-3-3-3-3-3-||
B |-1----1-1-1-1----1-1-1-1-1-1-1-|------0-0-0-0----0-0-0-0-0-0-0-||
G |-0----0-0-0-0----0-0-0-0-0-0-0-|-0----0-0-0-0----0-0-0-0-0-0-0-|| (x2)
D |-2----2-2-2-2----2-2-2-2-2-2-2-|-0----0-0-0-0----0-0-0-0-0-0-0-||
A |-------------------------------|-2-----------------------------||
E |-------------------------------|-3-----------------------------||


{ Refrain }


Fin :

     Asus2 (C#sus2)                  CM7 (EM7)

          Am (C#m)   Asus2 (C#sus2)       C (E)      CM7 (EM7)
e ||-0----0-0-0-0----0-0-0-0-0-0-0-|-0----0-0-0-0----0-0-0-0-0-0---|
B ||-0----1-1-1-1--^-0-0-0-0-0-0-0-|-0----1-1-1-1--^-0-0-0-0-0-0---|
G ||-2----2-2-2-2----2-2-2-2-2-2-2-|-0----0-0-0-0----0-0-0-0-0-0---|
D ||-2----2-2-2-2----2-2-2-2-2-2-2-|-2----2-2-2-2----2-2-2-2-2-2-0-|
A ||-0----0-0-0-0----0-0-0-0-0-0-0-|-3----3-3-3-3----3-3-3-3-3-3-0-|
E ||-------------------------------|-----------------------------0-|

    Em (G#m)                        G6 (B6)

         Em7 (G#m7) Em (G#m)             CM9 (EM9)  G6 (B6)
e |------0-0-0-0----0-0-0-0-0-0---|------0-0-0-0----0-0-0-0-0-0-0-||
B |------1-1-1-1--^-0-0-0-0-0-0---|------1-1-1-1--^-0-0-0-0-0-0-0-||
G |------0-0-0-0----0-0-0-0-0-0---|------0-0-0-0----0-0-0-0-0-0-0-|| (x2)
D |-2----2-2-2-2----2-2-2-2-2-2-0-|-0----0-0-0-0----0-0-0-0-0-0-0-||
A |-2----2-2-2-2----2-2-2-2-2-2-0-|-2----2-2-2-2----2-2-2-2-2-2-2-||
E |-0---------------------------0-|-3-----------------------------||

    Am (C#m)
e |-0-----------------------------|-------------------------------||
B |-1-----------------------------|-------------------------------||
G |-2-----------------------------|-------------------------------||
D |-2-----------------------------|-------------------------------||
A |-0-----------------------------|-------------------------------||
E |-0-----------------------------|-------------------------------||



Paroles

Prendre les étoiles dans leurs yeux
Prendre les histoires qu'ils nous racontent
Prendre les boucles dans leurs cheveux
Prendre le temps de ... de s'en rendre compte

Prendre tes bras pour m'endormir
Prendre le chaud de tes soupirs
Prendre ton avis sur tout, et surtout, ...
Prendre soin de vous

Prendre les dessins qu'ils nous tendent
Prendre les peines qui ... se consolent
Prendre les câlins qu'ils nous demandent
Prendre toute la vie, quand ils rigolent

Prendre tes bras pour m'endormir
Prendre le chaud de tes soupirs
Prendre ton avis sur tout, et surtout, ...
Prendre soin de vous

Prendre les chemins de l'école
Prendre les coups de pieds, sous les couvertures
Prendre les poursuites et les courses folles
Prendre les doigts dans ... les pots de confitures

Prendre tes bras pour m'endormir
Prendre le chaud de tes soupirs
Prendre ton avis sur tout, et surtout, ...
Prendre soin de vous

Prendre soin de vous
Prendre soin de vous