Tabsvolo.net - Tablature : A ma place


 Les tablatures : 68

Chanson française (2017)

Sans rire (2013)

C'est pas tout ça... (2010)

En attendant (2009)

Bref... Septembre 2008

  • Ma p'tite chanson
  • J'espère...
  • Bref

Jours heureux (2007)

Blancs Manteaux à Volo (2006)

Bien Zarbos (2004)

Tablature : A ma place

01-04-2013

Partager cette tablature

Télécharger la version imprimable




Ecouter un extrait composé de différentes parties de la tablature :



Légende :
||------|| (xN) : Jouer N fois la partie entre les ||


Intro :

     Am           CM9          C
e ||------------|------------|------------|-----------|
B ||----1-----1-|----1-----1-|----1-----1-|-----------|
G ||----2-----0-|----0-----0-|----0-----0-|-----------|
D ||-------2----|-------0----|-------2----|-----------|
A ||-0----------|-2----------|-3----------|-3---------|
E ||------------|------------|------------|-----------|

Couplets 1,2 :

     Am                        Em
e ||------------|------------|------------|------------|
B ||----1-----1-|----1-----0-|----0-----0-|----0-----0-|
G ||----2-----2-|----2-----0-|----0-----0-|----0-----0-|
D ||-------2----|-------2----|------------|-2----------|
A ||-0----------|-0----------|-------2----|-------2----|
E ||------------|------------|-0----------|------------|

    C                         G
e |------------|------------|------------|------------||
B |----1-----1-|----1-----0-|----0-----0-|----0-----0-||
G |----0-----0-|----0-----0-|----0-----0-|----0-----0-|| (x2)
D |-------2----|-------2----|------------|-0----------||
A |-3----------|-3----------|-------2----|-------2----||
E |------------|------------|-3----------|------------||

Refrains 1,3 :

    Dm                        E
e |------------|------------|------------|------------|
B |----6-----6-|----6-----0-|----0-----0-|----0-----0-|
G |----7-----7-|----7-----0-|----1-----1-|----1-----0-|
D |-------7----|-------7----|------------|-2----------|
A |-5----------|-5----------|-------2----|-------2----|
E |------------|------------|-0----------|------------|

    Am           CM9          C
e |------------|------------|------------|------------|
B |----1-----1-|----1-----1-|----1-----1-|----1-----0-|
G |----2-----0-|----0-----0-|----0-----0-|----0-----0-|
D |-------2----|-------0----|-------2----|-------2----|
A |-0----------|-2----------|-3----------|-3----------|
E |------------|------------|------------|------------|

    F                         E
e |------------|------------|----------0-|------------|
B |----1-----1-|----1-----0-|---------0--|------------|
G |----2-----2-|----2-----0-|--------1---|------------|
D |------------|-3----------|-------2----|------------|
A |-------3----|-------3----|------2-----|------------|
E |-1----------|------------|-0---0------|------------|

Refrain 2 :

    Dm                        E
e |------------|------------|------------|------------|
B |----6-----6-|----6-----0-|----0-----0-|----0-----0-|
G |----7-----7-|----7-----0-|----1-----1-|----1-----0-|
D |-------7----|-------7----|------------|-2----------|
A |-5----------|-5----------|-------2----|-------2----|
E |------------|------------|-0----------|------------|

    Am           CM9          C
e |------------|------------|------------|------------|
B |----1-----1-|----1-----1-|----1-----1-|----1-----0-|
G |----2-----0-|----0-----0-|----0-----0-|----0-----0-|
D |-------2----|-------0----|-------2----|-------2----|
A |-0----------|-2----------|-3----------|-3----------|
E |------------|------------|------------|------------|

    F                         E
e |------------|------------|------------|------------|
B |----1-----1-|----1-----0-|----0-----0-|----0-----0-|
G |----2-----2-|----2-----0-|----1-----1-|----1-----0-|
D |------------|-3----------|------------|-2----------|
A |-------3----|-------3----|-------2----|-------2----|
E |-1----------|------------|-0----------|------------|

Couplets 3 :

     Am                        Em
e ||------------|------------|------------|------------|
B ||----1-----1-|----1-----0-|----0-----0-|----0-----0-|
G ||----2-----2-|----2-----0-|----0-----0-|----0-----0-|
D ||-------2----|-------2----|------------|-2----------|
A ||-0----------|-0----------|-------2----|-------2----|
E ||------------|------------|-0----------|------------|

    C                         G
e |------------|------------|------------|------------||
B |----1-----1-|----1-----0-|----0-----0-|----0-----0-||
G |----0-----0-|----0-----0-|----0-----0-|----0-----0-|| (x4)
D |-------2----|-------2----|------------|-0----------||
A |-3----------|-3----------|-------2----|-------2----||
E |------------|------------|-3----------|------------||

Dernier couplet :

    Am                        Em
e |----------0-|------------|----------0-|------------|
B |---------1--|------------|---------0--|------------|
G |--------2---|------------|--------0---|------------|
D |-------2----|------------|-------2----|------------|
A |-0----0-----|------------|------2-----|------------|
E |-----0------|------------|-0---0------|------------|

    C                         G
e |----------0-|------------|----------3-|------------|
B |---------1--|------------|---------0--|------------|
G |--------0---|------------|--------0---|------------| (x2)
D |-------2----|------------|-------0----|------------|
A |-3----3-----|------------|------2-----|------------|
E |-----0------|------------|-3---3------|------------|

Dernier refrain :

    Dm                        E
e |------------|------------|------------|------------|
B |----6-----6-|----6-----0-|----0-----0-|----0-----0-|
G |----7-----7-|----7-----0-|----1-----1-|----1-----0-|
D |-------7----|-------7----|------------|-2----------|
A |-5----------|-5----------|-------2----|-------2----|
E |------------|------------|-0----------|------------|

    Am           CM9          C
e |------------|------------|------------|------------|
B |----1-----1-|----1-----1-|----1-----1-|----1-----0-|
G |----2-----0-|----0-----0-|----0-----0-|----0-----0-|
D |-------2----|-------0----|-------2----|-------2----|
A |-0----------|-2----------|-3----------|-3----------|
E |------------|------------|------------|------------|

    F                         E
e |------------|------------|------------|------------|
B |----1-----1-|----1-----0-|----0-----0-|----0-----0-|
G |----2-----2-|----2-----0-|----1-----1-|----1-----0-|
D |------------|-3----------|------------|-2----------|
A |-------3----|-------3----|-------2----|-------2----|
E |-1----------|------------|-0----------|------------|

    Dm                        E
e |------------|------------|------------|------------|
B |----6-----6-|----6-----0-|----0-----0-|----0-----0-|
G |----7-----7-|----7-----0-|----1-----1-|----1-----0-|
D |-------7----|-------7----|------------|-2----------|
A |-5----------|-5----------|-------2----|-------2----|
E |------------|------------|-0----------|------------|

    Am           CM9          C
e |------------|------------|------------|------------|
B |----1-----1-|----1-----1-|----1-----1-|----1-----0-|
G |----2-----0-|----0-----0-|----0-----0-|----0-----0-|
D |-------2----|-------0----|-------2----|-------2----|
A |-0----------|-2----------|-3----------|-3----------|
E |------------|------------|------------|------------|

    F                         E
e |------------|------------|----------0-|------------|
B |----1-----1-|----1-----0-|---------0--|------------|
G |----2-----2-|----2-----0-|--------1---|------------|
D |------------|-3----------|-------2----|------------|
A |-------3----|-------3----|------2-----|------------|
E |-1----------|------------|-0---0------|------------|

Fin :

    Am           CM9          C            G            Am
e |------------|------------|------------|------------|------0-----|
B |----1-----1-|----1-----1-|----1-----0-|----0-----0-|-----1------|
G |----2-----0-|----0-----0-|----0-----0-|----0-----0-|----2-------|
D |-------2----|-------0----|-------2----|------------|---2--------|
A |-0----------|-2----------|-3----------|-------2----|--0---------|
E |------------|------------|------------|-3----------|-0----------|



Paroles

Repense à c'que t'as fait ce soir
Et à c'que t'avais fait hier
Si t'as des problème de mémoire
La même chose que la s'maine dernière
Si tu veux t'refaire le parcours
Retourne au temps de des 20 ans
Quand c'était pas ça tous les jours
Avant que ce soit trop souvent

Regarde toi dans la glace
Regarde moi en face
Pochtron, pauv'con
Essaye de te mettre à ma place
Tu sais bien qu'jai raison

J'comprends pas grand chose quand on cause
A force de changer de sujet
Et si des fois je fais une pause
Tu sais plus de quoi on parlait
Comme tu vois bien que je m'applique
A essayer t'articuler
Je le prends mal si tu m'expliques
Que t'as sûr'ment trop picolé

Regarde moi dans la glace
Regarde toi en face
Pochtron, pauv'con
J'essaye de me mettre à ta place
Si tu perds la raison

A te voir te cogner dans les portes
Et m'endormir tout habillé
Je me r'trouve à g'noux dans les chiottes
Chaque fois que tu viens m'réveiler
Où sont passé les gens qui t'aiment
Pourquoi y'a plus qu'moi dans l'décor
T'as fais l'vide, depuis qu't'es plus l'même
Depuis que je sens l'alcool fort

Quand tu déparques dans cet état
Je sais plus comment ça finit
Tu t'souviendras pas si j'étais là
Qui c'est qui t'as mis dans ton lit
Au mieux t'as dû rentré tout seul
Au pire j'ai fini chez les flics
Si tu t'es fait cassé ta grande gueule
Aux urgences des comas éthyliques

Regarde moi dans la glace
Regarde toi en face
Pochtron, pauv'con
J'essaye de me mettre à ta place
Si tu perds la raison

Encore une soirée tous les deux
Mais c'est la première fois qu'je pleure
Que t'es tout seuls que je m'en veux
Que c'est la merde et que t'as peur
J'sais pas quoi faire dans tu gémis
Comme y'a que nous, comme y'a que moi
Peut-être que ce soir c'est promis
Ce soir c'était la dernière fois

Regarde toi dans la glace
Regarde moi en face
Pochtron, pauv'con
Essaye de te mettre à ma place
Tu sais bien qu'jai raison

Regarde moi dans la glace
Regarde toi en face
Pochtron, pauv'con
Essaye de te mettre à ma place
Si tu perds la raison