Tabsvolo.net - Tablature : La Mémoire


 Les tablatures : 68

Chanson française (2017)

Sans rire (2013)

C'est pas tout ça... (2010)

En attendant (2009)

Bref... Septembre 2008

  • Ma p'tite chanson
  • J'espère...
  • Bref

Jours heureux (2007)

Blancs Manteaux à Volo (2006)

Bien Zarbos (2004)

Tablature : La Mémoire

Rev.2 | 23-04-2011

Télécharger la version imprimable




Ecouter un extrait composé de différentes parties de la tablature :


Légende :
= : Slide vers le haut du manche
x : Corde jouée étouffée


Intro :

e ||-----7-----------5-7=-----|-----7-----------5-7=-----|
B ||-----8-------7-8----------|-----8-------7-8----------|
G ||-----9---0--------------x-|-----9---0--------------x-|
D ||--------------------------|--------------------------|
A ||-7---------6----------2---|-7---------6----------2---|
E ||--------------------------|--------------------------|


Couplet :
e ||-----------------5-7=-----|-----------------5-7=-----|
B ||-----8-------7-8----------|-----8-------7-8----------|
G ||-----9---0--------------x-|-----9---0--------------x-|
D ||--------------------------|--------------------------|
A ||-7---------6----------2---|-7---------6----------2---|
E ||--------------------------|--------------------------|

e |-----------------5-7=-----|-----5-5-5---------5-5-5-----||
B |-----8-------7-8----------|-----5-5-5---------7-7-7-----||
G |-----9---0--------------0-|-----6-6-6---------6-6-6----0|| (x2)
D |--------------------------|-----7-7-7---------7-7-7-----||
A |-7---------6----------2---|-----7-7-7-----5---5-5-5-----||
E |--------------------------|-5---5-5-5---------5-5-5-----||


Refrain :

e |-----------------5-7=-----|-----5-5-5---------5-5-5-----|
B |-----8-------7-8----------|-----5-5-5---------7-7-7-----|
G |-----9---0--------------0-|-----6-6-6---------6-6-6----x|
D |--------------------------|-----7-7-7---------7-7-7-----|
A |-7---------6----------2---|-----7-7-7-----5---5-5-5-----|
E |--------------------------|-5---5-5-5---------5-5-5-----|

e |-----------------5-7=-----|-----------------5-7=------|
B |-----8-------7-8----------|-----8-------7-8-----------|
G |-----9---0--------------0-|-----9---0--------------0-x|
D |--------------------------|---------------------------|
A |-7---------6----------2---|-7---------6----------2----|
E |--------------------------|---------------------------|


Couplet :
e ||-----------------5-7=-----|-----------------5-7=-----|
B ||-----8-------7-8----------|-----8-------7-8----------|
G ||-----9---0--------------x-|-----9---0--------------0-|
D ||--------------------------|--------------------------|
A ||-7---------6----------2---|-7---------6----------2---|
E ||--------------------------|--------------------------|

e |-----------------5-7=-----|-----5-5-5---------5-5-5-----||
B |-----8-------7-8----------|-----5-5-5---------7-7-7-----||
G |-----9---0--------------0-|-----6-6-6---------6-6-6----0|| (x2)
D |--------------------------|-----7-7-7---------7-7-7-----||
A |-7---------6----------2---|-----7-7-7-----5---5-5-5-----||
E |--------------------------|-5---5-5-5---------5-5-5-----||


Refrain :

e |-----------------5-7=-----|-----5-5-5---------5-5-5-----|
B |-----8-------7-8----------|-----5-5-5---------7-7-7-----|
G |-----9---0--------------0-|-----6-6-6---------6-6-6----0|
D |--------------------------|-----7-7-7---------7-7-7-----|
A |-7---------6----------2---|-----7-7-7-----5---5-5-5-----|
E |--------------------------|-5---5-5-5---------5-5-5-----|

e |-----------------5-7=-----|-------------------------|
B |-----8-------7-8----------|-----8-------------------|
G |-----9---0--------------x-|-----9---x--------------x|
D |--------------------------|-------------------------|
A |-7---------6----------2---|-7---------6-6-6-6=------|
E |--------------------------|-------------------------|


Couplet :
e ||-----------------5-7=-----|-----------------5-7=-----|
B ||-----8-------7-8----------|-----8-------7-8----------|
G ||-----9---0--------------0-|-----9---0--------------0-|
D ||--------------------------|--------------------------|
A ||-7---------6----------2---|-7---------6----------2---|
E ||--------------------------|--------------------------|

e |-----------------5-7=-----|-----5-5-5---------5-5-5-----||
B |-----8-------7-8----------|-----5-5-5---------7-7-7-----||
G |-----9---0--------------0-|-----6-6-6---------6-6-6----x|| (x2)
D |--------------------------|-----7-7-7---------7-7-7-----||
A |-7---------6----------2---|-----7-7-7-----5---5-5-5-----||
E |--------------------------|-5---5-5-5---------5-5-5-----||


Refrain et fin :

e |--------------------------|-----5-5-5---------5-5-5-----|
B |--------------------------|-----5-5-5---------7-7-7-----|
G |--------------------------|-----6-6-6---------6-6-6----0|
D |--------------------------|-----7-7-7---------7-7-7-----|
A |-7------------------------|-----7-7-7-----5---5-5-5-----|
E |--------------------------|-5---5-5-5---------5-5-5-----|

e |-----------------5-7=-----|-----5-5-5---------5-5-5-----|
B |-----8-------7-8----------|-----5-5-5---------7-7-7-----|
G |-----9---0--------------0-|-----6-6-6---------6-6-6----x|
D |--------------------------|-----7-7-7---------7-7-7-----|
A |-7---------6----------2---|-----7-7-7-----5---5-5-5-----|
E |--------------------------|-5---5-5-5---------5-5-5-----|

e |-----7-----------5-7=-----|-----7-----------5-7=-----|-----------7--||
B |-----8-------7-8----------|-----8-------7-8----------|--------8-----||
G |-----9---0--------------x-|-----9---0----------------|-----9--------||
D |--------------------------|--------------------------|---9----------||
A |-7---------6----------2---|-7---------6----------2---|-7------------||
E |--------------------------|--------------------------|--------------||


Variantes : (jouée différemment dans Bien Zarbos ou à Blancs Manteaux)
A l'appréciation de l'interprête ;)

e |-----7-----------5-7=-----|        |-----------------5-7=-----|
B |-----8-------7-8----------|        |-----8-------7-8----------|
G |-----9---0--------------x-|        |-----9---0--------------x-|
D |--------------------------|   ou   |--------------------------|
A |-7---------6----------2---|        |-7---------6----------2---|
E |--------------------------|        |--------------------------|


Et

e |-----5-5-5---------5-5-5---|        |-----5-5-5-------------5---|
B |-----5-5-5---------7-7-7---|        |-----5-5-5-------------7---|
G |-----6-6-6---------6-6-6---|        |-----6-6-6-------------6---|
D |-----7-7-7---------7-7-7---|   ou   |-----7-7-7-----------------|
A |-----7-7-7-----5---5-5-5---|        |-----7-7-7-----5-----------|
E |-5---5-5-5---------5-5-5---|        |-5---5-5-5-----------------|

Paroles


La mémoire est une mauvaise fille
Elle place l'homme à son zénith en empêchant qu'il brille
Elle retient les histoires pour bien qu'on s'en souvienne
Justifiant toutes les tares de la nature humaine
C'est la loi du talion oeil pour oeil con pour con
Bien loin des accords à la Wye Plantation
Y a rien à oublier, y a pas de vieille haine
Rien n'se perd, rien n'se crée, tout se paye

Ainsi vont les Balkans
Et le Moyen-Orient
Les catholiques, les protestants
Et les guerres de clans
L'Inde et le Pakistan

Une prosopopée entre mémoires ennemies
Pourrait se résumer je crois comme suit :
"Puisque tu es le fils des enn'mis d'mon ancêtre
Ma vie n'aura qu'un but : te mener à ta perte"
A ces mots, l'autre rétorquera sans doute
Sûr de son bon droit et que rien ne déroute
"C'est toi qu'as commencé je n'suis pas responsable
J'ai rien à m'reprocher dont tu ne sois coupable"

Ainsi vont les Balkans
Et le Moyen-Orient
Les catholiques, les protestants
Et les guerres de clans
L'Inde et le Pakistan

La pièce se joue ainsi depuis bien des années
Les protagonistes changent sans toucher aux idées
Les acteurs sont tous toujours qualifiés
Le casting est paraît-il une formalité
Jamais de trous jamais de mauvaises répliques
La mémoire guérit tout - même les amnésiques
Dès leur plus jeune âge les enfants apprennent
A remplacer plus tard leurs parents sur la scène

Ainsi vont les Balkans
Et le Moyen-Orient
Les catholiques, les protestants
Et les guerres de clans

Ainsi vont les Balkans
Et le Moyen-Orient
Les catholiques, les protestants
Et les guerres de clans
L'Inde et le Pakistan