Tabsvolo.net - Tablature : La rupture


 Les tablatures : 68

Chanson française (2017)

Sans rire (2013)

C'est pas tout ça... (2010)

En attendant (2009)

Bref... Septembre 2008

  • Ma p'tite chanson
  • J'espère...
  • Bref

Jours heureux (2007)

Blancs Manteaux à Volo (2006)

Bien Zarbos (2004)

Tablature : La rupture

22-04-2011

Partager cette tablature

Télécharger la version imprimable




Ecouter un extrait composé de différentes parties de la tablature :



Légende :
x : Corde jouée étouffée


Intro :

     Fm                    C7                 G#                    G# sus4
e ||---------8--8--x-----|--------8-8-x-----|---------8--8--x-----|---------8--8--x-----|
B ||---------9--9--x-----|--------8-8-x-----|---------9--9--x-----|---------9--9--x-----|
G ||---------10-10-x---x-|----(9)-9-9-x---x-|-----(8)-8--8--x---x-|-----(8)-8--8--x-----|
D ||----(10)-10-10-x-----|-8------8-8-x-----|-10------10-10-x-----|-11------11-11-x---x-|
A ||-8-------8--8--x-----|------------------|---------------------|---------------------|
E ||---------------------|------------------|---------------------|---------------------|

    Fm                    C7                 C# sus4                C
e |---------8--8--x-----|--------8-8-x-----|----------13-13-x-----|---------8--8--x-----|
B |---------9--9--x-----|--------8-8-x-----|----------13-13-x-----|---------8--8--x-----|
G |---------10-10-x---x-|----(9)-9-9-x---x-|----------13-13-x---x-|---------9--9--x-----|
D |----(10)-10-10-x-----|-8------8-8-x-----|-----(10)-------------|---------10-10-x---x-|
A |-8-------8--8--x-----|------------------|-11-------------------|----(10)-10-10-x-----|
E |---------------------|------------------|----------------------|-8-------------------|


Couplets :

     Fm                    C7                 G#                    G# sus4
e ||---------8--8--x-----|--------8-8-x-----|---------8--8--x-----|---------8--8--x-----|
B ||---------9--9--x-----|--------8-8-x-----|---------9--9--x-----|---------9--9--x-----|
G ||---------10-10-x---x-|----(9)-9-9-x---x-|-----(8)-8--8--x---x-|-----(8)-8--8--x-----|
D ||----(10)-10-10-x-----|-8------8-8-x-----|-10------10-10-x-----|-11------11-11-x---x-|
A ||-8-------8--8--x-----|------------------|---------------------|---------------------|
E ||---------------------|------------------|---------------------|---------------------|

    Fm                    C7                 C# sus4                C
e |---------8--8--x-----|--------8-8-x-----|----------13-13-x-----|---------8--8--x-----||
B |---------9--9--x-----|--------8-8-x-----|----------13-13-x-----|---------8--8--x-----||
G |---------10-10-x---x-|----(9)-9-9-x---x-|----------13-13-x---x-|---------9--9--x-----||
D |----(10)-10-10-x-----|-8------8-8-x-----|-----(10)-------------|---------10-10-x---x-||
A |-8-------8--8--x-----|------------------|-11-------------------|----(10)-10-10-x-----||
E |---------------------|------------------|----------------------|-8-------------------||

(x4)

Refrains :

    A#                 C                     Fm                    D#7
e |--------6-6-x-----|---------8--8--x-----|---------8--8--x-----|--------6-6-x-----|
B |--------6-6-x-----|---------8--8--x-----|---------9--9--x-----|--------8-8-x-----|
G |--------7-7-x-----|---------9--9--x-----|---------10-10-x-----|--------6-6-x-----|
D |--------8-8-x-----|---------10-10-x-----|----(10)-10-10-x---x-|----(8)-8-8-x-----|
A |----(8)-8-8-x---x-|----(10)-10-10-x---x-|-8-------8--8--x-----|-6------6-6-x---x-|
E |-6----------------|-8-------------------|---------------------|------------------|

    C#                    C#                    C
e |---------9--9--x-----|---------9--9--x-----|---------8--8--x-----|
B |---------9--9--x-----|---------9--9--x-----|---------8--8--x-----|
G |---------10-10-x-----|---------10-10-x-----|---------9--9--x-----|
D |---------11-11-x-----|---------11-11-x-----|---------10-10-x---x-|
A |----(11)-11-11-x---x-|----(11)-11-11-x---x-|----(10)-10-10-x-----|
E |-9-------------------|-9-------------------|-8-------------------|

    C
e |----------8--8--x-----|
B |----------8--8--x-----|
G |----------9--9--x-----|
D |-----(10)-10-10-x---x-|
A |-10-------10-10-x-----|
E |----------------------|

    Fm                    C7                 G#                    G# sus4
e |---------8--8--x-----|--------8-8-x-----|---------8--8--x-----|---------8--8--x-----|
B |---------9--9--x-----|--------8-8-x-----|---------9--9--x-----|---------9--9--x-----|
G |---------10-10-x---x-|----(9)-9-9-x---x-|-----(8)-8--8--x---x-|-----(8)-8--8--x-----|
D |----(10)-10-10-x-----|-8------8-8-x-----|-10------10-10-x-----|-11------11-11-x---x-|
A |-8-------8--8--x-----|------------------|---------------------|---------------------|
E |---------------------|------------------|---------------------|---------------------|

    Fm                    C7                 C# sus4                C
e |---------8--8--x-----|--------8-8-x-----|----------13-13-x-----|---------8--8--x-----|
B |---------9--9--x-----|--------8-8-x-----|----------13-13-x-----|---------8--8--x-----|
G |---------10-10-x---x-|----(9)-9-9-x---x-|----------13-13-x---x-|---------9--9--x-----|
D |----(10)-10-10-x-----|-8------8-8-x-----|-----(10)-------------|---------10-10-x---x-|
A |-8-------8--8--x-----|------------------|-11-------------------|----(10)-10-10-x-----|
E |---------------------|------------------|----------------------|-8-------------------|



Paroles

Il parlait de rupture il en f'sait tout un foin
C'était l'un de ses thèmes de prédilection
Tu m'as dis « je t'aime plus, j'ai rencontré quelqu'un quelques semaines avant son élection »
Il lui parlait de rupture d'un projet pour la France
Ensemble tout devient possible comme c'était communiquant
Moi j'estimais ça dur il me tuait ton silence
Quand lui sa rupture ça nous f'sait pour cinq ans

C'est quoi ces ténèbres c'est quoi cette horizon
C'est quoi ce qu'on célèbre c'est quoi cette oraison

Il parlait d'ouverture au nom d'une nouvelle gouvernance
Et se donnait l'allure de ses satisfactions
Pour toi j'existais plus et vu les circonstances
Je ne manifestais aucune contestation
Et lui il parlait d'envergure au service de l'union
Tout en faisant toujours tout à l'emporte-pièce
Tu t'en battais la m'sure d'avoir mon opinion
Et ça faisait que je tenais toutes mes promesses

C'est quoi ces ténèbres c'est quoi cette horizon
C'est quoi ce qu'on célèbre c'est quoi cette oraison

Il parlait de relance et on lui f'sait crédit
D'avoir eut à rétablir un climat de confiance
J'étais prêt vu l'ambiance à me le tenir pour dit
Au risque de sauver moins que les apparences
Et lui il parlait pour parler et à chaque occasion
Il mélangeait les genres toujours en partit pris
Comme t'avais disparu c'était sans illusion
Que j'me donnais du mal pour en payer le prix

C'est quoi ces ténèbres c'est quoi cette horizon
C'est quoi ce qu'on célèbre c'est quoi cette oraison

C'est quoi ces ténèbres c'est quoi cette horizon
C'est quoi ce qu'on célèbre c'est quoi cette oraison