Tabsvolo.net - Tablature : Le medef (Blancs Manteaux à Volo)


 Les tablatures : 68

Chanson française (2017)

Sans rire (2013)

C'est pas tout ça... (2010)

En attendant (2009)

Bref... Septembre 2008

  • Ma p'tite chanson
  • J'espère...
  • Bref

Jours heureux (2007)

Blancs Manteaux à Volo (2006)

Bien Zarbos (2004)

Tablature : Le medef (Blancs Manteaux à Volo)

01-11-2013

Partager cette tablature

Télécharger la version imprimable 


Ecouter un extrait composé de différentes parties de la tablature :



Légende :
||------|| (xN) : Jouer N fois la partie entre les ||
                 > : Faire un slide vers le haut du manche (les aigües)


Aide et conseils :
Sur le refrain, attaquer la première basse de la mesure avec le pouce. Bien marquer les temps forts.



Intro :

     Em                    Am
e ||---------------------|--------------------------||
B ||----8--8>-----12--13-|-----13--13---------------||
G ||----9--9>------------|-----14--14------11^12^14-|| (x2)
D ||---------------------|--------------------------||
A ||-7-------------------|-12----------14-----------||
E ||----------10---------|--------------------------||

Couplets 1 et 2 :

     Em                    Am
e ||---------------------|--------------------------||
B ||----8--8>-----12--13-|-----13--13---------------||
G ||----9--9>------------|-----14--14------11^12^14-|| (x7)
D ||---------------------|--------------------------||
A ||-7-------------------|-12----------14-----------||
E ||----------10---------|--------------------------||

    Em                    Am
e |---------------------|------------------------|
B |----8--8>-----12--13-|---------13----------13-|
G |----9--9>------------|-----14----------14-----|
D |---------------------|------------------------|
A |-7-------------------|-12----------12---------|
E |----------10---------|------------------------|

    B
e |----------7--7-7-7-|
B |----------7--7-7-7-|
G |----------8--8-8-8-|
D |----------9--9-9-9-|
A |----------9--9-9-9-|
E |-7--7--7--7--7-7-7-|

Refrain 1, 2 :

    G                   Ebm6                C                   Ebm6
e |----------3--3-3-3-|----------8--8-8-8-|----------3--3-3-3-|----------8--8-8-8-|
B |----------3--3-3-3-|----------7--7-7-7-|----------1--1-1-1-|----------7--7-7-7-|
G |----------0--0-0-0-|----------8--8-8-8-|----------0--0-0-0-|----------8--8-8-8-|
D |----------0--0-0-0-|----------x--x-x-x-|----2--2--2--2-2-2-|----------x--x-x-x-|
A |----------2--2-2-2-|-6--6--6--6--6-6-6-|-3--3--3--3--3-3-3-|-6--6--6--6--6-6-6-|
E |-3--3--3--3--3-3-3-|----x--x--x--x-x-x-|-------------------|----x--x--x--x-x-x-|

    G                   Ebm6                C                   Ebm6
e |----------3--3-3-3-|----------8--8-8-8-|----------3--3-3-3-|----------8--8-8-8-|
B |----------3--3-3-3-|----------7--7-7-7-|----------1--1-1-1-|----------7--7-7-7-|
G |----------0--0-0-0-|----------8--8-8-8-|----------0--0-0-0-|----------8--8-8-8-|
D |----------0--0-0-0-|----------x--x-x-x-|----2--2--2--2-2-2-|----------x--------|
A |----------2--2-2-2-|-6--6--6--6--6-6-6-|-3--3--3--3--3-3-3-|-6--6--6--6--------|
E |-3--3--3--3--3-3-3-|----x--x--x--x-x-x-|-------------------|----x--x--x--------|

    Ebm6
e |-8--8-8-8--8--8-8-8-|
B |-7--7-7-7--7--7-7-7-|
G |-8--8-8-8--8--8-8-8-|
D |--------------------|
A |--------------------|
E |--------------------|

Pont (3ème couplet) :


     Em           C           GM7             F#m6
e ||------------|-----------|---------10----|-------------||
B ||-------8----|-----------|---------------|-------10----||
G ||-----9-----0|------9----|------11------x|-----8------x|| (x4)
D ||------------|-10--------|---------------|-------------||
A ||-7----------|-----------|-10------------|-9-----------||
E ||------------|-----------|---------------|-------------||

    C            C add9      C           CM7         B          A#m6         GM7          F#m6
e |--------12--|--------9--|--------8--|--------7--|-------7--|------------|---------10-|----------|
B |------------|-----------|-----------|-----------|----------|---------13-|------------|-------10-|
G |------9-----|------9----|------9----|------9----|-----8----|------11----|------11----|-----8----|
D |-10---------|-10--------|-10--------|-10--------|-9--------|------------|------------|----------|
A |------------|-----------|-----------|-----------|----------|-12---------|-10---------|-9--------|
E |------------|-----------|-----------|-----------|----------|------------|------------|----------|

    Em                    Am
e |---------------------|--------------------------|
B |----8--8------12--13-|-----13--13---------------|
G |----9--9-------------|-----14--14------11^12^14-|
D |---------------------|--------------------------|
A |-7-------------------|-12----------14-----------|
E |----------10---------|--------------------------|

    Em                    Am
e |---------------------|------------------------|
B |----8--8------12--13-|---------13----------13-|
G |----9--9-------------|-----14----------14-----|
D |---------------------|------------------------|
A |-7-------------------|-12----------12---------|
E |----------10---------|------------------------|

    B
e |----------7--x-x-x-|----------7--7-7-7-|
B |----------7--x-x-x-|----------7--7-7-7-|
G |----------8--x-x-x-|----------8--8-8-8-|
D |----------9--x-x-x-|----------9--9-9-9-|
A |----------9--x-x-x-|----------9--9-9-9-|
E |-7--7--7--7--x-x-x-|-7--7--7--7--7-7-7-|

Dernier refrain :

     G                   Ebm6                C                   Ebm6
e ||----------3--3-3-3-|----------8--8-8-8-|----------3--3-3-3-|----------8--8-8-8-||
B ||----------3--3-3-3-|----------7--7-7-7-|----------1--1-1-1-|----------7--7-7-7-||
G ||----------0--0-0-0-|----------8--8-8-8-|----------0--0-0-0-|----------8--8-8-8-|| (x3)
D ||----------0--0-0-0-|----------x--x-x-x-|----2--2--2--2-2-2-|----------x--x-x-x-||
A ||----------2--2-2-2-|-6--6--6--6--6-6-6-|-3--3--3--3--3-3-3-|-6--6--6--6--6-6-6-||
E ||-3--3--3--3--3-3-3-|----x--x--x--x-x-x-|-------------------|----x--x--x--x-x-x-||

    G                   Ebm6                C                   Ebm6
e |----------3--3-3-3-|----------8--8-8-8-|----------3--3-3-3-|----------8--8-8-8-|
B |----------3--3-3-3-|----------7--7-7-7-|----------1--1-1-1-|----------7--7-7-7-|
G |----------0--0-0-0-|----------8--8-8-8-|----------0--0-0-0-|----------8--8-8-8-|
D |----------0--0-0-0-|----------x--x-x-x-|----2--2--2--2-2-2-|----------x--------|
A |----------2--2-2-2-|-6--6--6--6--6-6-6-|-3--3--3--3--3-3-3-|-6--6--6--6--------|
E |-3--3--3--3--3-3-3-|----x--x--x--x-x-x-|-------------------|----x--x--x--------|

    Ebm6
e |-8--8-8-8--8--8-8-8-|
B |-7--7-7-7--7--7-7-7-|
G |-8--8-8-8--8--8-8-8-|
D |--------------------|
A |--------------------|
E |--------------------|

Fin :

    Em                    Em                Em                Em
e |---------------------|-----------------|-----------------|-----------------||
B |----8--8>-----12--13-|----8--8------10-|----8--8------10-|----8--8------10-||
G |----9--9>------------|----9--9---------|----9--9---------|----9--9---------||
D |---------------------|-----------------|-----------------|-----------------||
A |-7-------------------|-7---------------|-7---------------|-7---------------||
E |----------10---------|----------10-----|----------10-----|----------10-----||



Paroles

Quand je s'rai membre du Medef
J'aurai pour tâche de défendre
Tous ceux qui payent l'ISF
Et la liberté d'entreprendre
Et je me battrai pour qu'on baisse
Significativement les charges
Etant donné ce qu'on encaisse
Pour qu'nos manœuvres aient plus de marges
Quand je s'rai membre du Medef
Je s'rai le partenaire social
De tous les précaires et des SDF
Car quand on est libéral
On rend le travail plus flexible
Et pour c'qui est de la justice
On promet la main invisible
D'Adam Smith

Mais j'gagne et j'dépense
Un Salaire Minimum Interprofessionnel de Croissance
Et je comprends pas pourquoi
Il me reste keud, il me reste rien à la fin du mois

Quand je s'rai membre du Medef
J'aurai pour tâche de foutre en l'air
Tout c'qui rapporte pas bézef
Et qui coûte cher en fonctionnaires
Et j'me battrai contre la crise
Pour relancer l'activité
Je prôn'rai qu'on la délocalise
Partout où on peut l'exploiter
Quand je s'rai membre du Medef
J'dirai qu'le libre-échange peut tout
Pendant qu'j'engrangerai les bénefs
En embauchant à moindre coût
J's'rai pour un état régalien
Armé des lois de la police
Qui s'tiennent main dans la main
D'Adam Smith

Mais j'gagne et j'dépense
Un Salaire Minimum Interprofessionnel de Croissance
Et je comprends pas pourquoi
Il me reste keud, il me reste rien à la fin du mois

Il disent que l'droit du travail
N'est pas favorable à l'emploi
Parce qu'il est trop contraignant
Et contre-productif
Ils disent que l'salarié
Devrait n'devoir compter qu'sur soi
Parce qu'il n'peut pas y avoir
De projet collectif
Ils socialisent les coûts
Et privatisent les bénéfices
Les bien publics ne valent le coup
Qu'à condition qu'ils s'enrichissent
Alors je m'dis qu'j'dois pas être le seul en lice
A vouloir mettre ma main dans la gueule
D'Adam Smith

Mais j'gagne et j'dépense
Un Salaire Minimum Interprofessionnel de Croissance
Et je comprends pas pourquoi
Il me reste keud, il me reste rien à la fin du mois

Mais j'gagne et j'dépense
Un Salaire Minimum Interprofessionnel de Croissance
Et je comprends pas pourquoi
Il me reste keud, il me reste rien à la fin du mois