Tabsvolo.net - Tablature : Krumpf


 Les tablatures : 68

Chanson française (2017)

Sans rire (2013)

C'est pas tout ça... (2010)

En attendant (2009)

Bref... Septembre 2008

  • Ma p'tite chanson
  • J'espère...
  • Bref

Jours heureux (2007)

Blancs Manteaux à Volo (2006)

Bien Zarbos (2004)

Tablature : Krumpf

03-02-2013

Partager cette tablature

Télécharger la version imprimable




Ecouter un extrait composé de différentes parties de la tablature :



Légende :
                 ~ : Vibrato
||------|| (xN) : Jouer N fois la partie entre les ||
                 = : Slide (glissé) vers le haut du manche
                 t : Taper les cordes
                 x : Corde jouée étouffée


Intro :

     Em7               Em7               C                 Am
e ||---------------0-|-----------------|---------------0-|---------------0-||
B ||-------3---------|-------3-------0-|-------1-----1---|-------1-----1---||
G ||-----------------|-----------------|-----0-----0-----|-----2-----2-----|| (x2)
D ||-----2-------2---|-----2-------2---|---2-----2-------|---2-----2-------||
A ||---2-------2-----|---2-------2-----|-3---------------|-0---------------||
E ||-0-------0-------|-0-------0-------|-----------------|-----------------||

Premier couplet :

     Em7               Em7               C                 Am
e ||---------------0-|-----------------|---------------0-|---------------0-||
B ||-------3---------|-------3-------0-|-------1-----1---|-------1-----1---||
G ||-----------------|-----------------|-----0-----0-----|-----2-----2-----|| (x6)
D ||-----2-------2---|-----2-------2---|---2-----2-------|---2-----2-------||
A ||---2-------2-----|---2-------2-----|-3---------------|-0---------------||
E ||-0-------0-------|-0-------0-------|-----------------|-----------------||

    Em7               Em7               C                 Am
e |---------------0-|-----------------|---------------0-|-------------------|
B |-------3---------|-------3-------0-|-------1-----1---|------t----1----(0)|
G |-----------------|-----------------|-----0-----0-----|------t----2-------|
D |-----2-------2---|-----2-------2---|---2-----2-------|-------------------|
A |---2-------2-----|---2-------2-----|-3---------------|-0-----------------|
E |-0-------0-------|-0-------0-------|-----------------|-------------------|

Premier refrain :

                                 Em              B7              C
e |----------------------------|-----7-7-7-----|-----x-x-x-----|-----8--8--8------|
B |----7~-t-7----7~-t-7----t-t-|-----8-8-8---x-|-----7-7-7---x-|-----8--8--8----x-|
G |------------------------t-t-|-----9-9-9---x-|-----x-x-x---x-|-----9--9--9----x-|
D |------------------------t-t-|-----9-9-9---x-|-----7-7-7---x-|-----10-10-10---x-|
A |-7---------7---------7--t-t-|-7---7-7-7---x-|-----6-6-6---x-|-----10-10-10---x-|
E |----------------------------|---------------|-7---7-7-7-----|-8---8--8--8------|

                              Em aug5   G       CM7     G         G
e |-------------------------|-------3-------3-|---------------3-|---------------3-|
B |----7-----------------7=-|-----0-------0---|-------0-----0(0)|-------0-----0(0)|
G |----------8-----8--9-----|---0-----0-0-----|-----0-----0-----|-----0-----0-----|
D |-------------------------|-2---------------|---2-----0-------|---0-------------|
A |-6-----------------------|-----------------|-3---------------|---------2-------|
E |-------7-----7-----------|-----------------|-----------------|-3---------------|

    G       GM7       Em aug5   G       CM7     G         G
e |-----------------|-------3-------3-|---------------3-|---------------3-|
B |-------0-------0-|-----0-------0---|-------0-----0(0)|-------0-----0(0)|
G |-----0-------0---|---0-----0-0-----|-----0-----0-----|-----0-----0-----|
D |---0-------0-----|-2---------------|---2-----0-------|---0-------------|
A |-----------------|-----------------|-3---------------|---------2-------|
E |-3-------2-------|-----------------|-----------------|-3---------------|

    G       GM7
e |-----------------|-----------------|----------------|
B |-------0-------0-|------5----------|-------7--------|
G |-----0-------0---|-----------------|----------------|
D |---0-------0-----|-----------------|----------------|
A |-----------------|-4---------------|--6-------------|
E |-3-------2-------|-----------5=----|------------7=--|

Second couplet :

     Em7               Em7               C                 Am
e ||---------------0-|-----------------|---------------0-|---------------0-||
B ||-------3---------|-------3-------0-|-------1-----1---|-------1-----1---||
G ||-----------------|-----------------|-----0-----0-----|-----2-----2-----|| (x6)
D ||-----2-------2---|-----2-------2---|---2-----2-------|---2-----2-------||
A ||---2-------2-----|---2-------2-----|-3---------------|-0---------------||
E ||-0-------0-------|-0-------0-------|-----------------|-----------------||

    Em7               Em7               C                 Am
e |---------------0-|-----------------|---------------0-|---------------0-|---------------0-|
B |-------3---------|-------3-------0-|-------1-----1---|-------1-----1---|-------1-----1---|
G |-----------------|-----------------|-----0-----0-----|-----2-----2-----|-----2-----2-----|
D |-----2-------2---|-----2-------2---|---2-----2-------|---2-----2-------|---2-----2-------|
A |---2-------2-----|---2-------2-----|-3---------------|-0---------------|-0---------------|
E |-0-------0-------|-0-------0-------|-----------------|-----------------|-----------------|

    Em7               Em7               C                 Am
e |---------------0-|-----------------|---------------0-|-------------------|
B |-------3---------|-------3-------0-|-------1-----1---|------t----1----(0)|
G |-----------------|-----------------|-----0-----0-----|------t----2-------|
D |-----2-------2---|-----2-------2---|---2-----2-------|-------------------|
A |---2-------2-----|---2-------2-----|-3---------------|-0-----------------|
E |-0-------0-------|-0-------0-------|-----------------|-------------------|

Second refrain :

                                 Em              B7              C
e |----------------------------|-----7-7-7-----|-----x-x-x-----|-----8--8--8------|
B |----7~-t-7----7~-t-7----t-t-|-----8-8-8---x-|-----7-7-7---x-|-----8--8--8----x-|
G |------------------------t-t-|-----9-9-9---x-|-----x-x-x---x-|-----9--9--9----x-|
D |------------------------t-t-|-----9-9-9---x-|-----7-7-7---x-|-----10-10-10---x-|
A |-7---------7---------7--t-t-|-7---7-7-7---x-|-----6-6-6---x-|-----10-10-10---x-|
E |----------------------------|---------------|-7---7-7-7-----|-8---8--8--8------|

                               Em aug5   G       CM7     G         G
e |-------------------------||-------3-------3-|---------------3-|---------------3-|
B |----7-----------------7=-||-----0-------0---|-------0-----0(0)|-------0-----0(0)|
G |----------8-----8--9-----||---0-----0-0-----|-----0-----0-----|-----0-----0-----|
D |-------------------------||-2---------------|---2-----0-------|---0-------------|
A |-6-----------------------||-----------------|-3---------------|---------2-------|
E |-------7-----7-----------||-----------------|-----------------|-3---------------|

    G       GM7       Em aug5   G       CM7     G         G
e |-----------------|-------3-------3-|---------------3-|---------------3-|
B |-------0-------0-|-----0-------0---|-------0-----0(0)|-------0-----0(0)|
G |-----0-------0---|---0-----0-0-----|-----0-----0-----|-----0-----0-----|
D |---0-------0-----|-2---------------|---2-----0-------|---0-------------|
A |-----------------|-----------------|-3---------------|---------2-------|
E |-3-------2-------|-----------------|-----------------|-3---------------|

    G       GM7
e |-----------------||       |-----------------|----------------|
B |-------0-------0-||       |------5----------|-------7--------|
G |-----0-------0---|| (x2)  |-----------------|----------------|
D |---0-------0-----||       |-----------------|----------------|
A |-----------------||       |-4---------------|--6-------------|
E |-3-------2-------||       |-----------5=----|------------7=--|

Fin :

    Em7               Em7               C                 Am
e |---------------0-|-----------------|---------------0-|---------------0-|
B |-------3---------|-------3-------0-|-------1-----1---|-------1-----1---|
G |-----------------|-----------------|-----0-----0-----|-----2-----2-----|
D |-----2-------2---|-----2-------2---|---2-----2-------|---2-----2-------|
A |---2-------2-----|---2-------2-----|-3---------------|-0---------------|
E |-0-------0-------|-0-------0-------|-----------------|-----------------|

    Em7               Em7               C                 Am
e |---------------0-|-----------------|-----------------|-----------------||
B |-------3---------|-------3-------0-|---------1-------|-1---1-----------||
G |-----------------|-----------------|---------0-------|-2---2-----------||
D |-----2-------2---|-----2-------2---|---------2-------|-2---2-----------||
A |---2-------2-----|---2-------2-----|-3---------------|-0---0-----------||
E |-0-------0-------|-0-------0-------|-----------------|-----------------||



Paroles

Il y a des millénaires l'homme ne savait faire que krumpf
Il n'avait pas plus de vocabulaire qu'un schtroumpf
Il a fallu qu'il en forge des onomatopées
Qu'il cherche dans sa gorge d'autres sonorités
Il distingua les mots pour mieux se faire entendre
Et de là le cerveau, balbutia le comprendre
Mais la pensée étant dépendante du langage
Du grammaticalement de la structure des phrases
La langue ne permet pas en toutes circonstances
A moins penser ce qu'on dit pour pouvoir dire ce qu'on pense
Il y a des choses qui, quand on les exprime
Dans les mots s'abîment

Comme, quand le verbe est trop sourd
Pour dire les preuves d'amour
Qu'il y avait dans tes gestes et dans ton sourire
Et dans tes caresses avant de dormir
Dans ce matin froid au fond d'un lit chaud
Je n'me souviens pas avoir dit un mot
Je n'me souviens pas avoir dit un mot

Adam a dans la bible donné des noms aux bêtes
Est passé sous le crible de la pensée abstraite
Chaque chose a un nom, chaque chose a un son
Et chaque chose se classe, chaque chose a sa place
Tout ce qui nous entoure, dans les mots se divise
Et se fixe en contours que la pensée maîtrise
Par la langue on possède, par les mots on désigne
Les choses qui se succèdent, en succession de signes
Y a des abus de langage, des manières de parler
Des façons de prendre l'image pour la réalité
C'est facile de mentir, d'inventer des histoires
Et à force de les dire de finir par y croire
Par la langue on dit vrai, tout aussi bien que faux
Si l'erreur est humaine, c'est que l'homme a des mots
Et y a des choses qui, quand on les exprime
Dans les mots s'abîment

Comme, quand le verbe est trop sourd
Pour dire les preuves d'amour
Qu'y avait dans tes gestes et dans ton sourire
Et dans tes caresses avant de dormir
Dans ce matin froid au fond d'un lit chaud
Je n'me souviens pas avoir dit un mot

Qu'y avait dans tes gestes et dans ton sourire
Et dans tes caresses avant de dormir
Dans ce matin froid au fond d'un lit chaud
Je n'me souviens pas avoir dit un mot
Je n'me souviens pas avoir dit un mot

Il y a des millénaires l'homme ne savait faire que krumpf