Tabsvolo.net - Tablature : Grand frère


 Les tablatures : 68

Chanson française (2017)

Sans rire (2013)

C'est pas tout ça... (2010)

En attendant (2009)

Bref... Septembre 2008

  • Ma p'tite chanson
  • J'espère...
  • Bref

Jours heureux (2007)

Blancs Manteaux à Volo (2006)

Bien Zarbos (2004)

Tablature : Grand frère

15-04-2013

Partager cette tablature

Télécharger la version imprimable




Ecouter un extrait composé de différentes parties de la tablature :



Légende :
||------|| (xN) : Jouer N fois la partie entre les ||
             0^2 : Pull on : on pose le doigt sur la case 2 juste après avoir gratté la corde à vide, sans changer de rythme...


Aide et conseils :
- Dernière mesure de la première ligne l'intro et du couplet, pour le passage Am - B7 :
Pour le Am, poser juste l'index et le majeur et pour passer au B7, déplacer simplement l'index
de la corde de Si à la corde de Ré.
- Le Bm sus4 est un Bm mais pas barré, l'index pince la première corde mais n'est pas appuyé sur les autres.
- Pareil pour le FM7 flat5 qui est un F non barré...
- L'enchainement des A9 - EM7 - Em - GM7 à la fin du premier tour du refrain se fait sans changer la position des doigts
  Placer les trois doigts en 5 / 6 / 4 et ne plus bouger ;)
- Pendant le refrain, pour fluidifier le passage entre le C et la série A9 - EM7 - Em - GM7, se servir de l'annulaire comme guide...
- Pratiquement tout le long, la dernière corde jouée est à vide : on prépare l'accord suivant, en commençant par les basses ;)

NB :
Le nom des accords correspond à la position des doigts à partir du capo...


Enchainement :

Intro  -  Couplet  -  Pré-refrain  -  Rift  -  Couplet  -  Pré-refrain  -  Refrain  -  Rift  -  Couplet  -  Pré-refrain  -  Refrain  -  Rift Ad libitum :)


Capo 9

Intro / Rift :

    Em                 Em9                G                  Am       B7
e |----------------0-|----------------0-|----------------0-|-------0----------|
B |-------0-----0----|-------3-----3----|-------0-----0----|----1-----------0-|
G |----0-----0-------|----0-------------|----0-------------|-2-----------2----|
D |------------------|----------0-------|------------------|----------1-------|
A |------------------|------------------|----------2-------|------------------|
E |-0----------------|-2----------------|-3----------------|------------------|

    Em                 Em9                G                  B7
e |------------------|------------------|------------------|-------2--------0-|
B |-------0--------0-|-------3--------3-|-------0--------0-|----0--------0----|
G |----0--------0----|----0--------0----|----0--------0----|----------2-------|
D |------------------|------------------|------------------|-1----------------|
A |----------2-------|----------0-------|----------2-------|------------------|
E |-0----------------|-2----------------|-3----------------|------------------|

Couplets : (Comme l'intro mais x2)

     Em                 Em9                G                  Am       B7
e ||----------------0-|----------------0-|----------------0-|-------0----------|
B ||-------0-----0----|-------3-----3----|-------0-----0----|----1-----------0-|
G ||----0-----0-------|----0-------------|----0-------------|-2-----------2----|
D ||------------------|----------0-------|------------------|----------1-------|
A ||------------------|------------------|----------2-------|------------------|
E ||-0----------------|-2----------------|-3----------------|------------------|

    Em                 Em9                G                  B7
e |------------------|------------------|------------------|-------2--------0-||
B |-------0--------0-|-------3--------3-|-------0--------0-|----0--------0----||
G |----0--------0----|----0--------0----|----0--------0----|----------2-------|| (x2)
D |------------------|------------------|------------------|-1----------------||
A |----------2-------|----------0-------|----------2-------|------------------||
E |-0----------------|-2----------------|-3----------------|------------------||

Pré-refrain :

    C                  D7                 Em                 Bm sus4
e |----------------0-|-------2--------0-|----------------0-|----------------0-|
B |-------1-----1----|----1--------1----|-------0-----0----|-------3-----3----|
G |----0-------------|----------2-------|----0-------------|----4-------------|
D |----------2-------|-0----------------|------------------|----------4-------|
A |-3----------------|------------------|----------2-------|-2----------------|
E |------------------|------------------|-0----------------|------------------|

    C                  C Add9             Bm sus4            CM7
e |----------------0-|-------0----------|----------------0-|-------0--------0-|
B |-------1-----1----|----1-----------1-|-------3-----3----|----0--------0----|
G |----0-------------|-------------0----|----4-------------|-5--------5-------|
D |----------2-------|-0----------------|----------4-------|------------------|
A |-3----------------|----------3-------|-2----------------|------------------|
E |------------------|------------------|------------------|------------------|

Refrain :

    G                  GM7                FM7 flat5
e |----------------3-|----------------0-|----------------0-|-------0----------|
B |-------0-----0----|-------0-----0----|-------0-----0----|----0-----------0-|
G |----0-------------|----0-------------|----2-------------|-2-----------2----|
D |----------0-------|----------0-------|----------3-------|----------3-------|
A |------------------|------------------|------------------|------------------|
E |-3----------------|-2----------------|-1----------------|------------------|

    C                                       A9       EM7       Em       GM7
e |------------------0-|-------0----------|----------------0-|-------0----------|
B |-------1-------1----|----1-----------0-|-------0-----0----|----0-----------0-|
G |----0---------------|-0-----------1----|----0-------------|-0-----------0----|
D |----------0^2-------|----------2-------|------------------|----------4-------|
A |-3------------------|------------------|----------6-------|------------------|
E |--------------------|------------------|-5----------------|------------------|

    G                  GM7                FM7 flat5
e |----------------3-|----------------0-|----------------0-|-------0----------|
B |-------0-----0----|-------0-----0----|-------0-----0----|----0-----------0-|
G |----0-------------|----0-------------|----2-------------|-2-----------2----|
D |----------0-------|----------0-------|----------3-------|----------3-------|
A |------------------|------------------|------------------|------------------|
E |-3----------------|-2----------------|-1----------------|------------------|

    C                                       Bm sus4            CM7
e |------------------0-|-------0----------|----------------0-|-------0--------0-|
B |-------1-------1----|----1-----------0-|-------3-----3----|----0--------0----|
G |----0---------------|-0-----------1----|----4-------------|-5--------5-------|
D |----------0^2-------|----------2-------|----------4-------|------------------|
A |-3------------------|------------------|-2----------------|------------------|
E |--------------------|------------------|------------------|------------------|



Paroles

Dans les bras de maman
T'avais les yeux fermés
J'allais sur mes sept ans
Toi, t'étais tout bébé
Au milieu du salon
Un p'tit peu avant Noël
J'répétais ton prénom
Et, c'était beau comme t'étais belle
T'allais casser mes jouets
Déchirer mes dessins
Mais déjà je savais
Que ça ne ferait rien

Dans tes bras de jeune femme
J'avais les yeux fermés
En déversant mes larmes
Pour celle, qu'j'avais aimée
Au milieu du salon
Un p'tit peu avant Noël
J'répétais son prénom
Et, c'était pas beau que j'la trouve belle
T'écoutais mes sanglots
Et sans me faire de r'proches
T'avais pas mâché tes mots
Comme on était proches

Si je suis grand
Ma petite soeur
C'est au contraire
Tu l'imagines
Tout simplement
Au fond d'mon coeur
D'être ton frère
Jolie frangine

Dans ses bras je te vois
Comme tu fermes les yeux
En lui parlant tout bas
Dans un rire malicieux
Au milieu du salon
Un p'tit peu avant Noël
Il disait ton prénom
Et c'était beau comme t'étais belle
A vous voir tous les deux
Et comme vous vous aimez
Je vous souhaite en bien mieux
Ce que vous voudrez

Si je suis grand
Ma petite soeur
C'est au contraire
Tu l'imagines
Tout simplement
Au fond d'mon coeur
D'être ton frère
Jolie frangine