Tabsvolo.net - Tablature : Je rêve que


 Les tablatures : 68

Chanson française (2017)

Sans rire (2013)

C'est pas tout ça... (2010)

En attendant (2009)

Bref... Septembre 2008

  • Ma p'tite chanson
  • J'espère...
  • Bref

Jours heureux (2007)

Blancs Manteaux à Volo (2006)

Bien Zarbos (2004)

Tablature : Je rêve que

20-07-2010

Télécharger la version imprimable



Pas d'extrait pour le moment...



Légende :
||----|| (x2)
: Rejouer la partie bornée par des doubles barres.


Intro :

     Dm               Dm
e ||---5------------|---5------------|
B ||-----6----------|-----6----------|
G ||----------------|----------------|
D ||-------5-7---5--|-------5-7---5--|
A ||-5--------------|-5--------------|
E ||----------------|----------------|


Couplet :

     Dm               Dm               D#    C           Dm
e ||---5------------|---5------------|---6-------------|---5------------||
B ||-----6----------|-----6----------|-----8-----5-----|-----6----------||
G ||----------------|----------------|---------------5-|----------------|| (x4)
D ||-------5-7---5--|-------5-7---5--|-----------------|-------5-7---5--||
A ||-5--------------|-5--------------|---------3---4---|-5--------------||
E ||----------------|----------------|-6-----3---------|----------------||
     D#                Dm
e ||---6-------------|---5------------||
B ||-----8-----5-----|-----6----------||
G ||---------------5-|----------------|| (x3)
D ||-----------------|-------5-7---5--||
A ||---------3---4---|-5--------------||
E ||-6-----3---------|----------------||

    A       F#m       Dm               Dm
e |---5-------9-----|---5------------|-------------||
B |-----5-------10--|-----6----------|-------------||
G |-----------------|----------------|-------------||
D |-----------------|-------5-7---5--|-------------||
A |-----------------|-5--------------|-5-----------||
E |-5-------9-------|----------------|-------------||



Paroles

Je bosse sur des bouquins
Compliqués, sans images
Avec du latin d'imprimé dans toutes les pages
Quand ça parle de l'âme, du monde ou de l'être
Quand ça parle de notre capacité à les connaître

C'est vrai qu'c'est tripant, c'est vrai qu'c'est magique
C'est vrai qu'c'est bandant quand c'est onto-théologique
Mais quand mes forces me lâchent dans la raison pure
Quand les mots n'ont plus d'sens et que ça devient dur

Je rêve que je fais l'amour
Avec la fille qui dans le cours
Sur la physique d'Aristote
N'arrête pas de prendre des notes