Tabsvolo.net - Tablature : T'es belle


 Les tablatures : 68

Chanson française (2017)

Sans rire (2013)

C'est pas tout ça... (2010)

En attendant (2009)

Bref... Septembre 2008

  • Ma p'tite chanson
  • J'espère...
  • Bref

Jours heureux (2007)

Blancs Manteaux à Volo (2006)

Bien Zarbos (2004)

Tablature : T'es belle

Rev. 02 | 25-09-2010

Partager cette tablature

Télécharger la version imprimable




Ecouter un extrait composé de différentes parties de la tablature :


Légende :
x : Corde jouée étouffée
t : taper sur les cordes avec la main droite

Intro :

     D#m                         
e ||--------t-6-------6-----------|--------t-6-------6-------x-||
B ||--------t-7-------6-----------|--------t-6-------6-----x---||
G ||--------t-8---8---8----8---6--|--------t-6---6---6---x-----|| (x2)
D ||------------8--------8---8----|------------8-------x-------||
A ||-6----------------------------|----------------------------||
E ||----------------7-------------|-9--------------9-----------||


Couplet :

     D#m...
e ||--------t-6-------6-----------|--------t-6-------6-------x-||
B ||--------t-7-------6-----------|--------t-6-------6-----x---||
G ||--------t-8---8---8----8---6--|--------t-6---6---6---x-----|| (x8)
D ||------------8--------8---8----|------------8-------x-------||
A ||-6----------------------------|----------------------------||
E ||----------------7-------------|-9--------------9-----------||


Refrain :

    G#m         C#           D#m         B            G#m
e |------------------------|------------------------|------------------------|
B |----------4-----------6-|----------7-----------7-|----------4-----------4-|
G |-------4-----------6----|-------8-----------8----|-------4-----------4----|
D |----6-----------6-------|----8-----------9-------|----6-----------6-------|
A |-------------4----------|-6----------------------|------------------------|
E |-4----------------------|-------------7----------|-4-----------4----------|

    A#               A#7
e |-------6-----6-6--6----6-6-|
B |-------6-----6-6--6----6-6-|
G |-------7-----7-7--7----7-7-|
D |----8--8-----8-8--6----6-6-|
A |----8--8-----8-8--8----8-8-|
E |-6--6--6-----6-6--6----6-6-|

     D#m...
e ||--------t-6-------6-----------|--------t-6-------6-------x-||
B ||--------t-7-------6-----------|--------t-6-------6-----x---||
G ||--------t-8---8---8----8---6--|--------t-6---6---6---x-----|| (x2)
D ||------------8--------8---8----|------------8-------x-------||
A ||-6----------------------------|----------------------------||
E ||----------------7-------------|-9--------------9-----------||


Paroles


T'es belle quand tu souris
T'es belle tout l'temps
T'es belle même quand tu ris
Et qu'on voit tes dents

T'es belle quand tu rougis
T'es belle en toutes circonstances
T'es belle même quand tu fais une blague pourrie
En plein dans un silence

T'es belle quand tu te trompes
T'es belle quand tu t'entêtes
T'es belle, je m'en rends compte
Même quand t'as l'air bête

T'es belle quand tu t'énerves
T'es belle sans te mentir
T'es belle même si, quand tu t'énerves
C'est pas le moment de te le dire

Refrain :
Déjà du temps de mes amours vagues
J'étais sourd au fracas de leurs écumes
Et comme l'amour m'a toujours fait des blagues
J'dois être aveugle, je présume

T'es belle quand tu bois
T'es belle quand t'es bourrée
T'es belle quand tu marches pas droit
Et qu'tu sais plus parler

T'es belle quand tu dors
T'es belle quand tu ronfles
T'es belle, c'est ça qu'est fort
Même quand tu m'gonfles

T'es belle mal réveillée
T'es belle et je te jure
Que t'es belle même quand t'as été coiffée
Par tes couvertures

T'es belle quand tu me reproches
De pas être honnête avec toi mais
T'es belle même quand tu t'trouves moche
Alors je l'garde pour moi

Refrain :
Déjà du temps de mes amours vagues
J'étais sourd au fracas de leurs écumes
Et comme l'amour m'a toujours fait des blagues
J'dois être aveugle, je présume