Tabsvolo.net - Tablature : L'interprétation 


 Les tablatures : 68

Chanson française (2017)

Sans rire (2013)

C'est pas tout ça... (2010)

En attendant (2009)

Bref... Septembre 2008

  • Ma p'tite chanson
  • J'espère...
  • Bref

Jours heureux (2007)

Blancs Manteaux à Volo (2006)

Bien Zarbos (2004)

Tablature : L'interprétation

16-04-2011

Partager cette tablature

Télécharger la version imprimable




Ecouter un extrait composé de différentes parties de la tablature :



Légende :
= : Léger slide vers le haut du manche

Intro :

     Bm           F#           A7           G7    A7
e ||------------|------------|------------|------------||
B ||----3-----3-|----2-----0-|----2-----2-|----0-----2-||
G ||----4-----4-|----3-----0-|----0-----0-|----0-----0-|| (x4)
D ||-------4----|------------|-------2----|------------||
A ||-2----------|-------4----|-0----------|-------0----||
E ||------------|-2----------|------------|-2----------||


Couplets 1 et 2 :

     Bm           F#           A7           G7    A7
e ||------------|------------|------------|------------||
B ||----3-----3-|----2-----0-|----2-----2-|----0-----2-||
G ||----4-----4-|----3-----0-|----0-----0-|----0-----0-|| (x4)
D ||-------4----|------------|-------2----|------------||
A ||-2----------|-------4----|-0----------|-------0----||
E ||------------|-2----------|------------|-2----------||

    Em           A7           Em6          G7           G7
e |------------|------------|------------|------------|------------|
B |----8-----8-|----2-----2-|----2-----2-|----2-----2-|----2-----2-|
G |----9-----9-|----0-----0-|----0-----0-|----0-----0-|----0-----0-|
D |-------9----|-------2----|-------2----|-------2----|-------2----|
A |-7----------|-0----------|------------|------------|------------|
E |------------|------------|-3----------|-2----------|-2----------|

Refrains :

    Bm           Em6          Em           A            Bm           Em6
e |------------|------------|------------|------------|------------|------------|
B |----3-----3-|----5-----5-|----8-----8-|----5-----5-|----3-----3-|----5-----5-|
G |----4-----4-|----4-----4-|----9-----9-|----6-----6-|----4-----4-|----4-----4-|
D |-------4----|-------5----|-------9----|------------|-------4----|-------5----|
A |-2----------|-4----------|-7----------|-------7----|-2----------|-4----------|
E |------------|------------|------------|-5----------|------------|------------|

    Em
e |------------|------------|
B |----8=------|------------|
G |----9=------|------------|
D |------------|------------|
A |-7----------|------------|
E |------------|------------|

     Bm           F#           A7           G7    A7
e ||------------|------------|------------|------------||
B ||----3-----3-|----2-----0-|----2-----2-|----0-----3-||
G ||----4-----4-|----3-----0-|----0-----0-|----0-----0-|| (x2 et Ad lib pour le dernier)
D ||-------4----|------------|-------2----|------------||
A ||-2----------|-------4----|-0----------|-------0----||
E ||------------|-2----------|------------|-2----------||

Couplets 3 :

     Bm           F#           A7           G7    A7
e ||------------|------------|------------|------------||
B ||-------3----|-------2----|-------2----|-------2----||
G ||-------4----|-------3----|-------0----|-------0----|| (x4)
D ||------------|------------|------------|------------||
A ||-2----------|------------|-0----------|------------||
E ||------------|-2----------|------------|-2----------||

    Em           A7           Em6          G7           G7
e |------------|------------|------------|------------|------------|
B |----8-----8-|----2-----2-|----2-----2-|----2-----2-|----2-----2-|
G |----9-----9-|----0-----0-|----0-----0-|----0-----0-|----0-----0-|
D |-------9----|-------2----|-------2----|-------2----|-------2----|
A |-7----------|-0----------|------------|------------|------------|
E |------------|------------|-3----------|-2----------|-2----------|



Paroles

Il m'accuse de l'avoir bousculé
Je m'excuse, il me traite d'enculé
C'est une insulte à caractère homophobe
Mais c'est pas le moment de jouer les pédagogues
Il aimerait qu'on s'explique, moi je veux pas d'embrouille
J'adopte la tactique anti-barrage en couille
Mais apparemment lui il veut pas qu'on discute
Son crédo c'est plutôt « J'vais t'crever fils de pute »

Refrain :

J'ai du mal à me faire à ce qu'il vient de dire
J'ai du mal et j'espère qu'il va y réfléchir
Sa réponse n'est pas la solution et je crois que son
Interprétation de la situation est dénuée de réflexion

J'vois pas le coup partir, j'ai le temps de rien faire
Rien ne sert de courir alors je reste à terre
Je reprends mes esprits, j'essaye de me relever
Quand j'vois la cavalerie de la BAC arriver
D'abord il se défend mais il a beau s'débattre
Ils ont de l'entrainement, il est seul ils sont quatre
D'ailleurs un des agents exprime sans parabole
Un genre de « ferme ta gueule ou je te frappe au sol »

{Refrain}

Je porte plainte par principe, j'accepte d'identifier le type
On lui commet d'office une avocate, car la comparution est immédiate
J'témoigne au tribunal, au cours de l'instruction
Je signal la violence de l'interpellation
Mais le juge sans bat et condamne l'accusé
A autant d'mois d'prison qu'il a de côtes cassées

{Refrain}