Tabsvolo.net - Tablature : Syndrome


 Les tablatures : 68

Chanson française (2017)

Sans rire (2013)

C'est pas tout ça... (2010)

En attendant (2009)

Bref... Septembre 2008

  • Ma p'tite chanson
  • J'espère...
  • Bref

Jours heureux (2007)

Blancs Manteaux à Volo (2006)

Bien Zarbos (2004)

Tablature : Syndrome

Télécharger la version imprimable




Ecouter un extrait composé de différentes parties de la tablature :


Intro :

     Em              C7              B7sus4
e ||----(0)-0------|----(0)-0------|----(0)-0------|-------------||
B ||----(0)-0------|----(1)-1------|----(0)-0----0-|-----0-----0-||
G ||----(0)-0------|----(0)-0------|----(2)-2------|--------2----|| (x2)
D ||----(2)-2------|----(2)-2------|----(2)-2------|-4-----------||
A ||-----2--2----2-|-----2--2----0-|-----0--0------|-------------||
E ||-0--(0)-0------|-3--(3)-3------|-2--(2)-2------|-------------||


Couplet 1,2,3 :

     Em              C7              B7sus4
e ||----(0)-0------|----(0)-0------|----(0)-0------|-------------||
B ||----(0)-0------|----(1)-1------|----(0)-0----0-|-----0-----0-||
G ||----(0)-0------|----(0)-0------|----(2)-2------|--------2----|| (x2)
D ||----(2)-2------|----(2)-2------|----(2)-2------|-4-----------||
A ||-----2--2----2-|-----2--2----0-|-----0--0------|-------------||
E ||-0--(0)-0------|-3--(3)-3------|-2--(2)-2------|-------------||

    G                  B7
e |---(3)-3--3---3-3-|-----(2)-2--2---2-2-----|
B |---(0)-0--0---0-0-|-----(4)-4--4---4-4-----|
G |---(0)-0--0---0-0-|-----(2)-2--2---2-2-----|
D |---(0)-0--0---0-0-|-0----4--4--4---4-4-----|
A |----2--2--2---2-2-|---2-(2)-2--2---2-2---0-|
E |-3-(3)-3--3---3-3-|-----(2)-2--2---2-2-----|

     Em              C7              B7sus4
e ||----(0)-0------|----(0)-0------|----(0)-0------|-------------||
B ||----(0)-0------|----(1)-1------|----(0)-0----0-|-----0-----0-||
G ||----(0)-0------|----(0)-0------|----(2)-2------|--------2----|| (x3)
D ||----(2)-2------|----(2)-2------|----(2)-2------|-4-----------||
A ||-----2--2----2-|-----2--2----0-|-----0--0------|-------------||
E ||-0--(0)-0------|-3--(3)-3------|-2--(2)-2------|-------------||

    G                  B7
e |---(3)-3--3---3-3-|-----(2)-2--2---2-2-----|
B |---(0)-0--0---0-0-|-----(4)-4--4---4-4-----|
G |---(0)-0--0---0-0-|-----(2)-2--2---2-2-----|
D |---(0)-0--0---0-0-|-0----4--4--4---4-4-----|
A |----2--2--2---2-2-|---2-(2)-2--2---2-2---0-|
E |-3-(3)-3--3---3-3-|-----(2)-2--2---2-2-----|

    Em              C7              B7sus4
e |----(0)-0------|----(0)-0------|----(0)-0------|-------------|
B |----(0)-0------|----(1)-1------|----(0)-0----0-|-----0-----0-|
G |----(0)-0------|----(0)-0------|----(2)-2------|--------2----|
D |----(2)-2------|----(2)-2------|----(2)-2------|-4-----------|
A |-----2--2----2-|-----2--2----0-|-----0--0------|-------------|
E |-0--(0)-0------|-3--(3)-3------|-2--(2)-2------|-------------|


Refrain :

    D7                 C7
e |---(5)-5--5---5-5-|-----(3)-3--3---3-3-----|
B |---(7)-7--7---7-7-|-----(5)-5--5---5-5-----|
G |---(5)-5--5---5-5-|-----(3)-3--3---3-3-----|
D |----7--7--7---7-7-|-0----5--5--5---5-5-----|
A |-5-(5)-5--5---5-5-|---3-(3)-3--3---3-3---0-|
E |---(5)-5--5---5-5-|-----(3)-3--3---3-3-----|

    Em              C7              B7sus4
e |----(0)-0------|----(0)-0------|----(0)-0------|-------------|
B |----(0)-0------|----(1)-1------|----(0)-0----0-|-----0-----0-|
G |----(0)-0------|----(0)-0------|----(2)-2------|--------2----|
D |----(2)-2------|----(2)-2------|----(2)-2------|-4-----------|
A |-----2--2----2-|-----2--2----0-|-----0--0------|-------------|
E |-0--(0)-0------|-3--(3)-3------|-2--(2)-2------|-------------|

    B7                 B7                   G                    B7
e |---(2)-2--2---2-2-|-----(2)-2--2---2-2-|-----(3)-3--3---3-3-|-----(2)-2--2---2-2-|---|
B |---(0)-0--0---0-0-|-----(4)-4--4---4-4-|-----(0)-0--0---0-0-|-----(4)-4--4---4-4-|---|
G |---(2)-2--2---2-2-|-----(2)-2--2---2-2-|-----(0)-0--0---0-0-|-----(2)-2--2---2-2-|---|
D |----3--3--3---3-3-|-0----4--4--4---4-4-|-----(0)-0--0---0-0-|-0----4--4--4---4-4-|---|
A |-2-(2)-2--2---2-2-|---2-(2)-2--2---2-2-|-0----2--2--2---2-2-|---2-(2)-2--2---2-2-|-0-|
E |------------------|-----(2)-2--2---2-2-|---3-(3)-3--3---3-3-|-----(2)-2--2---2-2-|---|

Couplet 4 :

     Em              C7              B7sus4
e ||----(0)-0------|----(0)-0------|---------------|--------||
B ||----(0)-0------|----(1)-1------|----(0)-0--0---|---0----||
G ||----(0)-0------|----(0)-0------|----(2)-2--2---|---2----|| (x2)
D ||----(2)-2------|----(2)-2------|----(2)-2--2---|---2----||
A ||-----2--2----2-|-----2--2----0-|-----0--0--0---|---0--0-||
E ||-0--(0)-0------|-3--(3)-3------|-2--(2)-2--2---|---2----||

    G                  B7
e |---(3)-3--3---3-3-|-----(2)-2--2---2-2-----|
B |---(0)-0--0---0-0-|-----(4)-4--4---4-4-----|
G |---(0)-0--0---0-0-|-----(2)-2--2---2-2-----|
D |---(0)-0--0---0-0-|-0----4--4--4---4-4-----|
A |----2--2--2---2-2-|---2-(2)-2--2---2-2---0-|
E |-3-(3)-3--3---3-3-|-----(2)-2--2---2-2-----|

     Em              C7              B7sus4
e ||----(0)-0------|----(0)-0------|----(0)-0------|-------------||
B ||----(0)-0------|----(1)-1------|----(0)-0----0-|-----0-----0-||
G ||----(0)-0------|----(0)-0------|----(2)-2------|--------2----|| (x3)
D ||----(2)-2------|----(2)-2------|----(2)-2------|-4-----------||
A ||-----2--2----2-|-----2--2----0-|-----0--0------|-------------||
E ||-0--(0)-0------|-3--(3)-3------|-2--(2)-2------|-------------||

    G                  B7
e |---(3)-3--3---3-3-|-----(2)-2--2---2-2-----|
B |---(0)-0--0---0-0-|-----(4)-4--4---4-4-----|
G |---(0)-0--0---0-0-|-----(2)-2--2---2-2-----|
D |---(0)-0--0---0-0-|-0----4--4--4---4-4-----|
A |----2--2--2---2-2-|---2-(2)-2--2---2-2---0-|
E |-3-(3)-3--3---3-3-|-----(2)-2--2---2-2-----|

    Em              C7              B7sus4
e |----(0)-0------|----(0)-0------|----(0)-0------|-------------|
B |----(0)-0------|----(1)-1------|----(0)-0----0-|-----0-----0-|
G |----(0)-0------|----(0)-0------|----(2)-2------|--------2----|
D |----(2)-2------|----(2)-2------|----(2)-2------|-4-----------|
A |-----2--2----2-|-----2--2----0-|-----0--0------|-------------|
E |-0--(0)-0------|-3--(3)-3------|-2--(2)-2------|-------------|


Paroles


J'me souviens d'un p'tit bar
Dans la gare de Poitiers
Au bistrot du départ
Ou celui d' l'arrivée
J'me souviens qu'c'était l'matin
Et qu'y avait un monde fou
Mais j'sais plus c'que tu prenais comme train
Ni c'que j'foutais dans l'Poitou

{Refrain:}
C'était un jour de grève
Sans service minimum
T'app'lais ça une prise d'otage
Et j'avais le syndrome de Stockholm

J'me souviens qu'une fois assise
Et bien qu'la Vienne soit loin de l'Euphrate
Que t'avais étiqueté toutes tes valises
A cause du plan Vigipirate
J'me souviens qu't'étais en provenance
Et moi à destination
Mais qu'le panneau de nos correspondances
Affichait que des annulations

{au Refrain}

J'me souviens, j'avoue souvent
Du silence qui avait précédé
La fin d'l'annonce s'excusant
Pour la gêne occasionnée
Et j'me souviens que, comme tu tenais
A c'que j'respecte tes droits d'usagère
Dans une rame restée à quai
On était montés en première

{au Refrain}

J'me souviens que t'étais belle
En conclusion de nos débats
Tout en soupirs de voyelles
Dans l'wagon 6 de la voie A
Et j'me souviens de toi nue
Et d'moi priant contre ta peau
Pour qu'cette journée n'soit que le début
Du plus grand des mouvements sociaux

{au Refrain}