Tabsvolo.net - Tablature : Réguler


 Les tablatures : 68

Chanson française (2017)

Sans rire (2013)

C'est pas tout ça... (2010)

En attendant (2009)

Bref... Septembre 2008

  • Ma p'tite chanson
  • J'espère...
  • Bref

Jours heureux (2007)

Blancs Manteaux à Volo (2006)

Bien Zarbos (2004)

Tablature : Réguler

23-09-2010

Partager cette tablature

Télécharger la version imprimable




Ecouter un extrait composé de différentes parties de la tablature :


Légende :
^ : Pull-off ou Pull-on

Intro :

     Cm               G                Fm                   G
e ||-3---3---3---3--|-3---3---3---3--|-8----8----8----8---|-3---3---3---3--|
B ||-4---4---4---4--|-3---3---3---3--|-9----9----9----9---|-3---3---3---3--|
G ||-5---5---5---5--|-4---4---4---4--|-10---10---10---10--|-4---4---4---4--|
D ||-5---5---3---5--|-5---5---5---5--|-10---10---10---10--|-5---5---5---5--|
A ||-3---3---3---3--|-5---5---5---5--|-8----8----8----8---|-5---5---5---5--|
E ||-3---3---3---3--|-3---3---3---3--|-8----8----8----8---|-3---3---3---3--|

    Cm               G                Fm                   A#
e |-3---3---3---3--|-3---3---3---3--|-8----8----8----8---|-6---6---6---6--|
B |-4---4---4---4--|-3---3---3---3--|-9----9----9----9---|-6---6---6---6--|
G |-5---5---5---5--|-4---4---4---4--|-10---10---10---10--|-7---7---7---7--|
D |-5---5---3---5--|-5---5---5---5--|-10---10---10---10--|-8---8---8---8--|
A |-3---3---3---3--|-5---5---5---5--|-8----8----8----8---|-8---8---8---8--|
E |-3---3---3---3--|-3---3---3---3--|-8----8----8----8---|-6---6---6---6--|

Premier couplet :

    Cm               G                Fm                   G
e |-3---3---3---3--|-3---3---3---3--|-8----8----8----8---|-3---3---3---3--|
B |-4---4---4---4--|-3---3---3---3--|-9----9----9----9---|-3---3---3---3--|
G |-5---5---5---5--|-4---4---4---4--|-10---10---10---10--|-4---4---4---4--|
D |-5---5---3---5--|-5---5---5---5--|-10---10---10---10--|-5---5---5---5--|
A |-3---3---3---3--|-5---5---5---5--|-8----8----8----8---|-5---5---5---5--|
E |-3---3---3---3--|-3---3---3---3--|-8----8----8----8---|-3---3---3---3--|

    Cm               G                Fm                   A#
e |-3---3---3---3--|-3---3---3---3--|-8----8----8----8---|-6---6---6---6--|
B |-4---4---4---4--|-3---3---3---3--|-9----9----9----9---|-6---6---6---6--|
G |-5---5---5---5--|-4---4---4---4--|-10---10---10---10--|-7---7---7---7--|
D |-5---5---3---5--|-5---5---5---5--|-10---10---10---10--|-8---8---8---8--|
A |-3---3---3---3--|-5---5---5---5--|-8----8----8----8---|-8---8---8---8--|
E |-3---3---3---3--|-3---3---3---3--|-8----8----8----8---|-6---6---6---6--|

    Cm               G                Fm                   G
e |-3---3---3---3--|-3---3---3---3--|-8----8----8----8---|-3---3---3---3--|
B |-4---4---4---4--|-3---3---3---3--|-9----9----9----9---|-3---3---3---3--|
G |-5---5---5---5--|-4---4---4---4--|-10---10---10---10--|-4---4---4---4--|
D |-5---5---3---5--|-5---5---5---5--|-10---10---10---10--|-5---5---5---5--|
A |-3---3---3---3--|-5---5---5---5--|-8----8----8----8---|-5---5---5---5--|
E |-3---3---3---3--|-3---3---3---3--|-8----8----8----8---|-3---3---3---3--|

    Cm               G                Fm                   A#
e |-3---3---3---3--|-3---3---3---3--|-8----8----8----8---|-6--------------|
B |-4---4---4---4--|-3---3---3---3--|-9----9----9----9---|-6--------------|
G |-5---5---5---5--|-4---4---4---4--|-10---10---10---10--|-7--------------|
D |-5---5---3---5--|-5---5---5---5--|-10---10---10---10--|-8--------------|
A |-3---3---3---3--|-5---5---5---5--|-8----8----8----8---|-8--------------|
E |-3---3---3---3--|-3---3---3---3--|-8----8----8----8---|-6--------------|

Refrain :

    Cm                 D#                     Fm                    A#
e |-----3-x-x-3-x-x--|-------11-x-x-11-x-x--|------8--x-x-8--x-x--|-----6-x-x-6-x-x--|
B |-3^4-4-x-x-4-x-x--|-------11-x-x-11-x-x--|-8^9--9--x-x-9--x-x--|-----6-x-x-6-x-x--|
G |-3^5-5-x-x-5-x-x--|-11^12-12-x-x-12-x-x--|-8^10-10-x-x-10-x-x--|-6^7-7-x-x-7-x-x--|
D |-3^5-5-x-x-5-x-x--|-11^13-13-x-x-13-x-x--|-8^10-10-x-x-10-x-x--|-6^8-8-x-x-8-x-x--|
A |-3---3-x-x-3-x-x--|-11^13-13-x-x-13-x-x--|-8----8--x-x-8--x-x--|-6^8-8-x-x-8-x-x--|
E |-3---3-x-x-3-x-x--|-11----11-x-x-11-x-x--|-8----8--x-x-8--x-x--|-6---6-x-x-6-x-x--|

    Cm                 D#                     Fm                    G#
e |-----3-x-x-3-x-x--|-------11-x-x-11-x-x--|------8--x-x-8--x-x--|-4---4---4---4--|
B |-3^4-4-x-x-4-x-x--|-------11-x-x-11-x-x--|-8^9--9--x-x-9--x-x--|-4---4---4---4--|
G |-3^5-5-x-x-5-x-x--|-11^12-12-x-x-12-x-x--|-8^10-10-x-x-10-x-x--|-5---5---5---5--|
D |-3^5-5-x-x-5-x-x--|-11^13-13-x-x-13-x-x--|-8^10-10-x-x-10-x-x--|-6---6---6---6--|
A |-3---3-x-x-3-x-x--|-11^13-13-x-x-13-x-x--|-8----8--x-x-8--x-x--|-6---6---6---6--|
E |-3---3-x-x-3-x-x--|-11----11-x-x-11-x-x--|-8----8--x-x-8--x-x--|-4---4---4---4--|

Deuxième couplet :

    Cm               G                Fm                   G
e |-3---3---3---3--|-3---3---3---3--|-8----8----8----8---|-3---3---3---3--|
B |-4---4---4---4--|-3---3---3---3--|-9----9----9----9---|-3---3---3---3--|
G |-5---5---5---5--|-4---4---4---4--|-10---10---10---10--|-4---4---4---4--|
D |-5---5---3---5--|-5---5---5---5--|-10---10---10---10--|-5---5---5---5--|
A |-3---3---3---3--|-5---5---5---5--|-8----8----8----8---|-5---5---5---5--|
E |-3---3---3---3--|-3---3---3---3--|-8----8----8----8---|-3---3---3---3--|

    Cm               G                Fm                   A#
e |-3---3---3---3--|-3---3---3---3--|-8----8----8----8---|-6---6---6---6--|
B |-4---4---4---4--|-3---3---3---3--|-9----9----9----9---|-6---6---6---6--|
G |-5---5---5---5--|-4---4---4---4--|-10---10---10---10--|-7---7---7---7--|
D |-5---5---3---5--|-5---5---5---5--|-10---10---10---10--|-8---8---8---8--|
A |-3---3---3---3--|-5---5---5---5--|-8----8----8----8---|-8---8---8---8--|
E |-3---3---3---3--|-3---3---3---3--|-8----8----8----8---|-6---6---6---6--|

    Cm               G                Fm                   G
e |-3---3---3---3--|-3---3---3---3--|-8----8----8----8---|-3---3---3---3--|
B |-4---4---4---4--|-3---3---3---3--|-9----9----9----9---|-3---3---3---3--|
G |-5---5---5---5--|-4---4---4---4--|-10---10---10---10--|-4---4---4---4--|
D |-5---5---3---5--|-5---5---5---5--|-10---10---10---10--|-5---5---5---5--|
A |-3---3---3---3--|-5---5---5---5--|-8----8----8----8---|-5---5---5---5--|
E |-3---3---3---3--|-3---3---3---3--|-8----8----8----8---|-3---3---3---3--|

    Cm               G                Fm                   A#
e |-3---3---3---3--|-3---3---3---3--|-8----8----8----8---|-6--------------|
B |-4---4---4---4--|-3---3---3---3--|-9----9----9----9---|-6--------------|
G |-5---5---5---5--|-4---4---4---4--|-10---10---10---10--|-7--------------|
D |-5---5---3---5--|-5---5---5---5--|-10---10---10---10--|-8--------------|
A |-3---3---3---3--|-5---5---5---5--|-8----8----8----8---|-8--------------|
E |-3---3---3---3--|-3---3---3---3--|-8----8----8----8---|-6--------------|

Refrain :

    Cm                 D#                     Fm                    A#
e |-----3-x-x-3-x-x--|-------11-x-x-11-x-x--|------8--x-x-8--x-x--|-----6-x-x-6-x-x--|
B |-3^4-4-x-x-4-x-x--|-------11-x-x-11-x-x--|-8^9--9--x-x-9--x-x--|-----6-x-x-6-x-x--|
G |-3^5-5-x-x-5-x-x--|-11^12-12-x-x-12-x-x--|-8^10-10-x-x-10-x-x--|-6^7-7-x-x-7-x-x--|
D |-3^5-5-x-x-5-x-x--|-11^13-13-x-x-13-x-x--|-8^10-10-x-x-10-x-x--|-6^8-8-x-x-8-x-x--|
A |-3---3-x-x-3-x-x--|-11^13-13-x-x-13-x-x--|-8----8--x-x-8--x-x--|-6^8-8-x-x-8-x-x--|
E |-3---3-x-x-3-x-x--|-11----11-x-x-11-x-x--|-8----8--x-x-8--x-x--|-6---6-x-x-6-x-x--|

    Cm                 D#                     Fm                    G#
e |-----3-x-x-3-x-x--|-------11-x-x-11-x-x--|------8--x-x-8--x-x--|-----4-x-x-4-x-x--|
B |-3^4-4-x-x-4-x-x--|-------11-x-x-11-x-x--|-8^9--9--x-x-9--x-x--|-----4-x-x-4-x-x--|
G |-3^5-5-x-x-5-x-x--|-11^12-12-x-x-12-x-x--|-8^10-10-x-x-10-x-x--|-4^5-5-x-x-5-x-x--|
D |-3^5-5-x-x-5-x-x--|-11^13-13-x-x-13-x-x--|-8^10-10-x-x-10-x-x--|-4^6-6-x-x-6-x-x--|
A |-3---3-x-x-3-x-x--|-11^13-13-x-x-13-x-x--|-8----8--x-x-8--x-x--|-4^6-6-x-x-6-x-x--|
E |-3---3-x-x-3-x-x--|-11----11-x-x-11-x-x--|-8----8--x-x-8--x-x--|-4---4-x-x-4-x-x--|

    Cm                 D#                     Fm                    A#
e |-----3-x-x-3-x-x--|-------11-x-x-11-x-x--|------8--x-x-8--x-x--|-----6-x-x-6-x-x--|
B |-3^4-4-x-x-4-x-x--|-------11-x-x-11-x-x--|-8^9--9--x-x-9--x-x--|-----6-x-x-6-x-x--|
G |-3^5-5-x-x-5-x-x--|-11^12-12-x-x-12-x-x--|-8^10-10-x-x-10-x-x--|-6^7-7-x-x-7-x-x--|
D |-3^5-5-x-x-5-x-x--|-11^13-13-x-x-13-x-x--|-8^10-10-x-x-10-x-x--|-6^8-8-x-x-8-x-x--|
A |-3---3-x-x-3-x-x--|-11^13-13-x-x-13-x-x--|-8----8--x-x-8--x-x--|-6^8-8-x-x-8-x-x--|
E |-3---3-x-x-3-x-x--|-11----11-x-x-11-x-x--|-8----8--x-x-8--x-x--|-6---6-x-x-6-x-x--|

    Cm                 D#                     Fm                    G#
e |-----3-x-x-3-x-x--|-------11-x-x-11-x-x--|------8--x-x-8--x-x--|-4---4---4---4--|
B |-3^4-4-x-x-4-x-x--|-------11-x-x-11-x-x--|-8^9--9--x-x-9--x-x--|-4---4---4---4--|
G |-3^5-5-x-x-5-x-x--|-11^12-12-x-x-12-x-x--|-8^10-10-x-x-10-x-x--|-5---5---5---5--|
D |-3^5-5-x-x-5-x-x--|-11^13-13-x-x-13-x-x--|-8^10-10-x-x-10-x-x--|-6---6---6---6--|
A |-3---3-x-x-3-x-x--|-11^13-13-x-x-13-x-x--|-8----8--x-x-8--x-x--|-6---6---6---6--|
E |-3---3-x-x-3-x-x--|-11----11-x-x-11-x-x--|-8----8--x-x-8--x-x--|-4---4---4---4--|

Dernier couplet :

    Cm               G                Fm                   G
e |-3---3---3---3--|-3---3---3---3--|-8----8----8----8---|-3---3---3---3--|
B |-4---4---4---4--|-3---3---3---3--|-9----9----9----9---|-3---3---3---3--|
G |-5---5---5---5--|-4---4---4---4--|-10---10---10---10--|-4---4---4---4--|
D |-5---5---3---5--|-5---5---5---5--|-10---10---10---10--|-5---5---5---5--|
A |-3---3---3---3--|-5---5---5---5--|-8----8----8----8---|-5---5---5---5--|
E |-3---3---3---3--|-3---3---3---3--|-8----8----8----8---|-3---3---3---3--|

    Cm               G                Fm                   A#
e |-3---3---3---3--|-3---3---3---3--|-8----8----8----8---|-6---6---6---6--|
B |-4---4---4---4--|-3---3---3---3--|-9----9----9----9---|-6---6---6---6--|
G |-5---5---5---5--|-4---4---4---4--|-10---10---10---10--|-7---7---7---7--|
D |-5---5---3---5--|-5---5---5---5--|-10---10---10---10--|-8---8---8---8--|
A |-3---3---3---3--|-5---5---5---5--|-8----8----8----8---|-8---8---8---8--|
E |-3---3---3---3--|-3---3---3---3--|-8----8----8----8---|-6---6---6---6--|

    Cm               G                Fm                   G
e |-3---3---3---3--|-3---3---3---3--|-8----8----8----8---|-3---3---3---3--|
B |-4---4---4---4--|-3---3---3---3--|-9----9----9----9---|-3---3---3---3--|
G |-5---5---5---5--|-4---4---4---4--|-10---10---10---10--|-4---4---4---4--|
D |-5---5---3---5--|-5---5---5---5--|-10---10---10---10--|-5---5---5---5--|
A |-3---3---3---3--|-5---5---5---5--|-8----8----8----8---|-5---5---5---5--|
E |-3---3---3---3--|-3---3---3---3--|-8----8----8----8---|-3---3---3---3--|

    Cm               G                Fm                   A#
e |-3---3---3---3--|-3---3---3---3--|-8----8----8----8---|-6--------------|
B |-4---4---4---4--|-3---3---3---3--|-9----9----9----9---|-6--------------|
G |-5---5---5---5--|-4---4---4---4--|-10---10---10---10--|-7--------------|
D |-5---5---3---5--|-5---5---5---5--|-10---10---10---10--|-8--------------|
A |-3---3---3---3--|-5---5---5---5--|-8----8----8----8---|-8--------------|
E |-3---3---3---3--|-3---3---3---3--|-8----8----8----8---|-6--------------|

Fin :

     Cm                 D#                     Fm                    A#
e ||-----3-x-x-3-x-x--|-------11-x-x-11-x-x--|------8--x-x-8--x-x--|-----6-x-x-6-x-x--||
B ||-3^4-4-x-x-4-x-x--|-------11-x-x-11-x-x--|-8^9--9--x-x-9--x-x--|-----6-x-x-6-x-x--||
G ||-3^5-5-x-x-5-x-x--|-11^12-12-x-x-12-x-x--|-8^10-10-x-x-10-x-x--|-6^7-7-x-x-7-x-x--||
D ||-3^5-5-x-x-5-x-x--|-11^13-13-x-x-13-x-x--|-8^10-10-x-x-10-x-x--|-6^8-8-x-x-8-x-x--||
A ||-3---3-x-x-3-x-x--|-11^13-13-x-x-13-x-x--|-8----8--x-x-8--x-x--|-6^8-8-x-x-8-x-x--||
E ||-3---3-x-x-3-x-x--|-11----11-x-x-11-x-x--|-8----8--x-x-8--x-x--|-6---6-x-x-6-x-x--||

Joué en boucle (parsemé de quelques G#) jusqu'à la fin (Cm)

    Cm
e |-3----------------------||
B |-4----------------------||
G |-5----------------------||
D |-5----------------------||
A |-3----------------------||
E |-3----------------------||

Paroles


J'ai appris plein d’choses pendant la crise financière
J'en connais maintenant sûr’ment plus que ma banquière
Qui s'la jouait initiée bonne conseillère
Mais elle ne fait plus la fière la boursicoteuse d'hier
Quand elle voulait me vendre ses sicavs
Le placement pas grave, l'investissement du brave
Aujourd'hui on l'appelle Madame la grosse cave
Juste bonne à faire descendre le cours de la bett’rave

Refrain :
Allez, tous vous faire réguler
Vous m'faites rigoler
Quand j'vous vois paniquer
Allez tous vous faire spéculer

On nous a dit plein d'choses pendant la crise financière
« Ça viendra pas chez nous » ça, ça v’nait du ministère
Les commentateurs perdus dans leurs commentaires
Les experts en analyse du tout et de son contraire
Que ceux qui ne comprennent rien expliquent à ceux qui pigent que dalle
Pour le manque de liquidité demandez au banques centrales
Si c'est une chute des cours faut, réserver fédéral
Quand le libéral appelle au secours et nous fais la morale c'est le ... paradis fiscal

{Refrain} (x2)

Il s'est passé plein d'choses depuis la crise financière
Combien d’actifs toxiques et de saisies immobilières ?
De nouveaux plans de relances et de déficits budgétaires ?
Combien de structures hors bilan d'agences de notations et pour combien d'intermédiaires ?
A l’heure des justifications et des délocalisations
De récessions en dépressions tout en indices et inflations
A l’heure des comptes, titrisations des bénéfices et fluctuations
A tous les traders en action et à leur prise de position

Allez tous vous faire réguler
Vous m'faites rigoler
Quand j'vous vois paniquer (x3)

Allez tous vous faire spéculer… spéculer… spéculer… spéculer…