Tabsvolo.net - Tablature : Avec son frère


 Les tablatures : 71

Avec son frère (2020)

  • Avec son frère
  • Je me demande quand
  • Jeune et beau
  • Joséphine
  • Disons
  • Contre lune
  • Un peu, beaucoup
  • Bout de trottoir
  • En vérité
  • De mon mieux
  • Depuis quand
  • Heures pleines
  • Chanson d'automne
  • C'est toi

Chanson française (2017)

Sans rire (2013)

C'est pas tout ça... (2010)

En attendant (2009)

Bref... Septembre 2008

  • Ma p'tite chanson
  • J'espère...
  • Bref

Jours heureux (2007)

Blancs Manteaux à Volo (2006)

Bien Zarbos (2004)

Tablature : Avec son frère

11-04-2020

Partager cette tablature

Télécharger la version imprimable 


Ecouter un extrait composé de différentes parties de la tablature :



Légende :
                    t : taper sur les cordes avec la main droite (les ongles)
                    ^ : Pull off

Capo 3


Intro :

     G (A#)                   
e ||-----------------|-----------------|-----------------|-----------------|
B ||---0---0---0---0-|---0---0---0---0-|---0---0---0---0-|-----------------|
G ||---0---0---0---0-|---0---0---0---0-|---0---0---0---0-|-----------------|
D ||---------0-------|---------0-------|---------0-------|-----------------|
A ||-------------3---|-------------3---|-------------3---|---------3-------|
E ||-3---------------|-0---------------|-0---------------|-3---------------|

Couplets :

    F (G#)                                    Am (Cm#)               Asus2 (Csus2)
e |--------------------|--------------------|----------------------|--------------------|
B |------1----t-----1--|------1----t-----1--|------1----t-----1^0--|------0----t-----0--|
G |------2----t-----2--|------2----t-----2--|------2----t-----2----|------2----t-----2--|
D |-----------t--------|-3---------t--------|-----------t--2-------|-----------t--2-----|
A |-----------t--3-----|-----------t--3-----|-0---------t----------|-0---------t--------|
E |-1------------------|--------------------|----------------------|--------------------|

    F (G#)                                    C (D#)                 CM7 (D#M7)
e |--------------------|--------------------|----------------------|--------------------|
B |------1----t-----1--|------1----t-----1--|------1----t-----1^0--|------0----t-----0--|
G |------2----t-----2--|------2----t-----2--|------0----t-----0----|------0----t-----0--|
D |-----------t--------|-3---------t--------|-----------t--2-------|-----------t--2-----|
A |-----------t--3-----|-----------t--3-----|-3---------t----------|-3---------t--------|
E |-1------------------|--------------------|----------------------|--------------------|

    G (A#)                                    Am (Cm#)               Asus2 (Csus2)
e |--------------------|--------------------|----------------------|--------------------|
B |------0----t-----0--|------0----t-----0--|------1----t-----1^0--|------0----t-----0--|
G |------0----t-----0--|------0----t-----0--|------2----t-----2----|------2----t-----2--|
D |-----------t--------|-0---------t--------|-----------t--2-------|-----------t--2-----|
A |-----------t--2-----|-----------t--2-----|-0---------t----------|-0---------t--------|
E |-3------------------|--------------------|----------------------|--------------------|

    F (G#)                                    C (D#)               G (A#)
e |--------------------|--------------------|--------------------|-------------------|------------|
B |------1----t-----1--|------1----t-----1--|------1----t-----0--|------0---------0--|------------|
G |------2----t-----2--|------2----t-----2--|------0----t-----2--|------0---------0--|------------|
D |-----------t--------|-3---------t--------|-----------t--2-----|-------------------|-0----------|
A |-----------t--3-----|-----------t--3-----|-3---------t--------|-----------2-------|------------|
E |-1------------------|--------------------|--------------------|-3-----------------|------------|


Refrain 1,2 :

    F (G#)                                    Am (Cm#)               Asus2 (Csus2)
e |--------------------|--------------------|----------------------|--------------------|
B |------1----t-----1--|------1----t-----1--|------1----t-----1^0--|------0----t-----0--|
G |------2----t-----2--|------2----t-----2--|------2----t-----2----|------2----t-----2--|
D |-----------t--------|-3---------t--------|-----------t--2-------|-----------t--2-----|
A |-----------t--3-----|-----------t--3-----|-0---------t----------|-0---------t--------|
E |-1------------------|--------------------|----------------------|--------------------|

    F (G#)                                    C (D#)                 CM7 (D#M7)
e |--------------------|--------------------|----------------------|--------------------|
B |------1----t-----1--|------1----t-----1--|------1----t-----1^0--|------0----t-----0--|
G |------2----t-----2--|------2----t-----2--|------0----t-----0----|------0----t-----0--|
D |-----------t--------|-3---------t--------|-----------t--2-------|-----------t--2-----|
A |-----------t--3-----|-----------t--3-----|-3---------t----------|-3---------t--------|
E |-1------------------|--------------------|----------------------|--------------------|

    G (A#)                                    Am (Cm#)               Asus2 (Csus2)
e |--------------------|--------------------|----------------------|--------------------|
B |------0----t-----0--|------0----t-----0--|------1----t-----1^0--|------0----t-----0--|
G |------0----t-----0--|------0----t-----0--|------2----t-----2----|------2----t-----2--|
D |-----------t--------|-0---------t--------|-----------t--2-------|-----------t--2-----|
A |-----------t--2-----|-----------t--2-----|-0---------t----------|-0---------t--------|
E |-3------------------|--------------------|----------------------|--------------------|

    F (G#)               C (D#)               G (A#)
e |--------------------|--------------------|-------------------|-------------------|
B |------1----t-----1--|------1----t-----0--|------0----t-----0-|------0----t-----0-|
G |------2----t-----2--|------0----t-----0--|------0----t-----0-|------0----t-----0-|
D |-----------t--------|-----------t--2-----|-----------t-------|-0---------t-------|
A |-----------t--3-----|-3---------t--------|-----------t--2----|-----------t--2----|
E |-1------------------|--------------------|-3-----------------|-------------------|

{ 2ème couplet }

{ 2ème refrain }

{ 3ème couplet }


3ème refrain et fin :

    D (F)                Am (Cm)              D (F)                Am (Cm)
e |--------------------|--------------------|--------------------|--------------------|
B |---3----3----3----3-|---1----1----1----1-|---3----3----3----3-|---1----1----1----1-|
G |---2----2----2----2-|---2----2----2----2-|---2----2----2----2-|---2----2----2----2-|
D |--------------------|--------------------|--------------------|--------------------|
A |--------------------|--------------------|--------------------|--------------------|
E |--------------------|--------------------|--------------------|--------------------|

    G (A#)                                    Am (Cm#)               Asus2 (Csus2)
e |--------------------|--------------------|----------------------|--------------------|
B |------0----t-----0--|------0----t-----0--|------1----t-----1^0--|------0----t-----0--|
G |------0----t-----0--|------0----t-----0--|------2----t-----2----|------2----t-----2--|
D |-----------t--------|-0---------t--------|-----------t--2-------|-----------t--2-----|
A |-----------t--2-----|-----------t--2-----|-0---------t----------|-0---------t--------|
E |-3------------------|--------------------|----------------------|--------------------|

    F (G#)               C (D#)               G (A#)
e |--------------------|--------------------|-------------------|-------------------|
B |------1----t-----1--|------1----t-----0--|------0----t-----0-|------0----t-----0-|
G |------2----t-----2--|------0----t-----0--|------0----t-----0-|------0----t-----0-|
D |-----------t--------|-----------t--2-----|-----------t-------|-0---------t-------|
A |-----------t--3-----|-3---------t--------|-----------t--2----|-----------t--2----|
E |-1------------------|--------------------|-3-----------------|-------------------|

    F (G#)                                    Am (Cm#)               Asus2 (Csus2)
e |--------------------|--------------------|----------------------|--------------------|
B |------1----t-----1--|------1----t-----1--|------1----t-----1^0--|------0----t-----0--|
G |------2----t-----2--|------2----t-----2--|------2----t-----2----|------2----t-----2--|
D |-----------t--------|-3---------t--------|-----------t--2-------|-----------t--2-----|
A |-----------t--3-----|-----------t--3-----|-0---------t----------|-0---------t--------|
E |-1------------------|--------------------|----------------------|--------------------|

    F (G#)                                    C (D#)                 CM7 (D#M7)
e |--------------------|--------------------|----------------------|--------------------|
B |------1----t-----1--|------1----t-----1--|------1----t-----1^0--|------0----t-----0--|
G |------2----t-----2--|------2----t-----2--|------0----t-----0----|------0----t-----0--|
D |-----------t--------|-3---------t--------|-----------t--2-------|-----------t--2-----|
A |-----------t--3-----|-----------t--3-----|-3---------t----------|-3---------t--------|
E |-1------------------|--------------------|----------------------|--------------------|

    G (A#)                                    Am (Cm#)               Asus2 (Csus2)
e |--------------------|--------------------|----------------------|--------------------|
B |------0----t-----0--|------0----t-----0--|------1----t-----1^0--|------0----t-----0--|
G |------0----t-----0--|------0----t-----0--|------2----t-----2----|------2----t-----2--|
D |-----------t--------|-0---------t--------|-----------t--2-------|-----------t--2-----|
A |-----------t--2-----|-----------t--2-----|-0---------t----------|-0---------t--------|
E |-3------------------|--------------------|----------------------|--------------------|

    F (G#)               C (D#)               G (A#)
e |--------------------|--------------------|-------------------|-------------------|
B |------1----t-----1--|------1----t-----0--|------0----t-----0-|------0----t-----0-|
G |------2----t-----2--|------0----t-----0--|------0----t-----0-|------0----t-----0-|
D |-----------t--------|-----------t--2-----|-----------t-------|-0---------t-------|
A |-----------t--3-----|-3---------t--------|-----------t--2----|-----------t--2----|
E |-1------------------|--------------------|-3-----------------|-------------------|

    C (D#)
e |------0-------------||
B |-----1--------------||
G |----0---------------||
D |---2----------------||
A |--3-----------------||
E |-0------------------||



Paroles

À l’abris du soleil dans les rues de leur ville
Aujourd’hui tout est pareil, demain où seront-ils ?
Ces odeurs ces couleurs cette fois la dernière fois
Retenir tout par coeur au plus profond de soi

    Il est avec son frère, ils partent tout à l’heure
    Un secret pour son père, la promesse à sa soeur
    De protéger son frère, quand ils s’ront loin d’ici
    La lettre pour sa mère, pardon, merci

Ils vont quitter leurs vies, comme ils savent déjà
Que l’av’nir a un prix, avant que d’être un choix
D’ici peu sans un mot, tout au bout de la rue
Pour un pays moins chaud, ils auront disparu

    Il est avec son frère, ils partent tout à l’heure
    Un secret pour son père, la promesse à sa soeur
    De protéger son frère, quand ils s’ront loin d’ici
    La lettre pour sa mère, pardon, merci

À l’ombre d’un café, si ils prennent leur temps
Ils ne sont pas pressés de ce qui les attend
Respirant l’atmosphère, tout en fermant les yeux
Ne sachant pas quoi faire pour s’en souvenir mieux

    Il est avec son frère, ils partent tout à l’heure
    Un secret pour son père, la promesse à sa soeur
    De protéger son frère, quand ils s’ront loin d’ici
    La lettre pour sa mère, pardon, merci

   Il est avec son frère…

   Un secret pour…

   De protéger son frère, quand ils s’ront loin d’ici
   La lettre pour sa mère

  Merci