Tabsvolo.net - Tablature : Rire aux éclats


 Les tablatures : 68

Chanson française (2017)

Sans rire (2013)

C'est pas tout ça... (2010)

En attendant (2009)

Bref... Septembre 2008

  • Ma p'tite chanson
  • J'espère...
  • Bref

Jours heureux (2007)

Blancs Manteaux à Volo (2006)

Bien Zarbos (2004)

Tablature : Rire aux éclats

27-02-2016

Partager cette tablature

Télécharger la version imprimable 


Ecouter un extrait composé de différentes parties de la tablature :



Légende :
||------|| (xN) : Jouer N fois la partie entre les ||
                 ^ :  Pull on
                 2 :  Mettre en avant. Les autres notes, non soulignées, sont de faible à inaudible ;)

Capo 7

Intro :

    Em                       Am                      Dsus2                    G
e |----------------------0-|---------------------0-|----------0-----0-------|----------3-----3-------|
B |----0-----0--------0----|----1-----1--------1---|----3--------1--------0-|----0--------0--------0-|
G |-------------0----------|-------------2---------|-------2-----------2----|-------0-----------0----|
D |-------2----------------|-------2---------------|-0----------------------|------------------------|
A |------------------------|-0---------------------|------------------------|------------------------|
E |-0----------------------|-----------------------|------------------------|-3----------------------|

    Am                       Em                       B7                       B11
e |----------------------0-|----------------------0-|----------------------0-|----------------------0-|
B |----1-----1--------1-^0-|----0-----0--------0----|----0-----0--------4----|----0-----0--------0----|
G |-------------2----------|-------------0----------|-------------0----------|-------------2----------|
D |-------2----------------|-------2----------------|-------4----------------|-------1----------------|
A |-0----------------------|------------------------|-2----------------------|-2----------------------|
E |------------------------|-0----------------------|------------------------|------------------------|

Couplets :    (à doubler sur le premier couplet)

     Em                       C                        G                        B7
e ||----------------------0-|----------------------0-|----------3-----3-------|----------------------0-||
B ||----0-----0-----0-------|----0-----0--------0----|----0--------0--------0-|----0-----0--------0----||
G ||-------------------0----|-------------0----------|-------0-----------0----|-------------2----------|| (x2)
D ||-------2-----4----------|-------2----------------|------------------------|-------1----------------||
A ||------------------------|-3----------------------|------------------------|-2----------------------||
E ||-0----------------------|------------------------|-3----------------------|------------------------||

    C                         G                        B7                       B11
e |-----------------------0-|----------3-----3-------|----------------------0-|----------------------0-|
B |----1------1--------1----|----0--------0--------0-|----0-----0--------4----|----0-----0--------0----|
G |--------------0----------|-------0-----------0----|-------------0----------|-------------2----------|
D |-------0^2---------------|------------------------|-------4----------------|-------1----------------|
A |-3-----------------------|------------------------|-2----------------------|-2----------------------|
E |-------------------------|-3----------------------|------------------------|------------------------|

Refrain :

    Em                       Am                      Dsus2                    G
e |----------------------0-|---------------------0-|----------0-----0-------|----------3-----3-------|
B |----0-----0--------0----|----1-----1--------1---|----3--------1--------0-|----0--------0--------0-|
G |-------------0----------|-------------2---------|-------2-----------2----|-------0-----------0----|
D |-------2----------------|-------2---------------|-0----------------------|------------------------|
A |------------------------|-0---------------------|------------------------|------------------------|
E |-0----------------------|-----------------------|------------------------|-3----------------------|

    Am                       Em                       B7                       B11
e |----------------------0-|----------------------0-|----------------------0-|----------------------0-|
B |----1-----1--------1-^0-|----0-----0--------0----|----0-----0--------4----|----0-----0--------0----|
G |-------------2----------|-------------0----------|-------------0----------|-------------2----------|
D |-------2----------------|-------2----------------|-------4----------------|-------1----------------|
A |-0----------------------|------------------------|-2----------------------|-2----------------------|
E |------------------------|-0----------------------|------------------------|------------------------|

{ Couplet }

Refrain 2 :

    Em                       Am                      Dsus2                    G
e |----------------------0-|---------------------0-|----------0-----0-------|----------3-----3-------|
B |----0-----0--------0----|----1-----1--------1---|----3--------1--------0-|----0--------0--------0-|
G |-------------0----------|-------------2---------|-------2-----------2----|-------0-----------0----|
D |-------2----------------|-------2---------------|-0----------------------|------------------------|
A |------------------------|-0---------------------|------------------------|------------------------|
E |-0----------------------|-----------------------|------------------------|-3----------------------|

    Am                       Em                       B7                       B11
e |----------------------0-|----------------------0-|----------------------0-|----------------------0-|
B |----1-----1--------1-^0-|----0-----0--------0----|----0-----0--------4----|----0-----0--------0----|
G |-------------2----------|-------------0----------|-------------0----------|-------------2----------|
D |-------2----------------|-------2----------------|-------4----------------|-------1----------------|
A |-0----------------------|------------------------|-2----------------------|-2----------------------|
E |------------------------|-0----------------------|------------------------|------------------------|

    B11
e |----------------------0-|
B |----0-----0--------0----|
G |-------------2----------|
D |-------1----------------|
A |-2----------------------|
E |------------------------|

{ Couplet }

{ Refrain }

{ Refrain }

Fin :

    Em                       Am                      Dsus2                    G
e |----------------------0-|---------------------0-|----------0-----0-------|----------3-----3-------|
B |----0-----0--------0----|----1-----1--------1---|----3--------1--------0-|----0--------0--------0-|
G |-------------0----------|-------------2---------|-------2-----------2----|-------0-----------0----|
D |-------2----------------|-------2---------------|-0----------------------|------------------------|
A |------------------------|-0---------------------|------------------------|------------------------|
E |-0----------------------|-----------------------|------------------------|-3----------------------|

    Am                       Em                       B7                       B11
e |----------------------0-|----------------------0-|----------------------0-|----------------------0-|
B |----1-----1--------1-^0-|----0-----0--------0----|----0-----0--------4----|----0-----0--------0----|
G |-------------2----------|-------------0----------|-------------0----------|-------------2----------|
D |-------2----------------|-------2----------------|-------4----------------|-------1----------------|
A |-0----------------------|------------------------|-2----------------------|-2----------------------|
E |------------------------|-0----------------------|------------------------|------------------------|

      Em
e |--------0---------------||
B |-------0----------------||
G |------0-----------------||
D |-----2------------------||
A |----2-------------------||
E |---0--------------------||


Paroles

Elle elle sait lire son prénom, elle parle beaucoup
Et j'aime vos discutions qu'on n'entends pas partout
Moi je fais plus tel'ment de sport toi t'as besoin de mieux dormir
Parfois ça d'mande un peu d'effort tout c'qu'il faut faire pour s'entret'nir
J'ai quelques cheveux gris, toi un peu d'embonpoint
L'inverse est vrai aussi, je t'accorde ce point

Elle elle veut choisir ses vêtm'ents mais elle ne sait pas s'habiller
Toi tu t'énerves je t'entends de la chambre à te fatiguer
Des fois on s'voit plus qu'en coup d'vent mais on essaye d'être pas trop loin
On se sourit peut être moins qu'avant mais on se sourit bien
On se dit "s'il te plait" pour se parler douc'ement
Et comme j'te l'dit jamais alors que j'y pense souvent


J'te trouve encore jolie, je t'aime autant toujours et
C'est toi qui me remplit, d'ailleurs et d'alentour
Tu m'as fait trembler comme une feuille et ça ne s'explique pas
Comme tu m'as tapé dans l'oeil et fait rire aux éclats


Elle elle voudrait un petit frère mais pas de p'tite soeur
Et dans les histoires c'est pas les sorcières qui lui font le plus peur
Toi tu m'racontes des rendez-vous parfois je les oublis
Souvent tu travailles beaucoup et moi je cours aussi
On se croise dans l'couloir, à moitiés endormis
Et même quand j'y pense tôt ou tard jamais je te le dis


J'te trouve encore jolie, je t'aime autant toujours et
C'est toi qui me remplit, d'ailleurs et d'alentour
Tu m'as fait trembler comme une feuille et ça ne s'explique pas
Comme tu m'as tapé dans l'oeil et fait rire aux éclats


On verra rien passer, tel'ment que ça va vite
Elle va oublier ses poupées et tout en ainsi d'suite
Elle aura grandi pour de bon et on aura vieilli nous deux
Quand elle mettra à sa façon ses bottes de sept lieux
Je n'jure jamais tu sais mais, j'y mettrais ma main au feu
De quoi l'av'nir s'ra fait, autant que faire se peut


J'te trouve encore jolie, je t'aime autant toujours et
C'est toi qui me remplit, d'ailleurs et d'alentour
Tu m'as fait trembler comme une feuille et ça ne s'explique pas
Comme tu m'as tapé dans l'oeil et fait rire aux éclats

J'te trouve encore jolie, je t'aime autant toujours et
C'est toi qui me remplit, d'ailleurs et d'alentour
Tu m'as fait trembler comme une feuille et ça ne s'explique pas
Comme tu m'as tapé dans l'oeil et fait rire aux éclats