Tabsvolo.net - Tablature : Histoire sympa


 Les tablatures : 68

Chanson française (2017)

Sans rire (2013)

C'est pas tout ça... (2010)

En attendant (2009)

Bref... Septembre 2008

  • Ma p'tite chanson
  • J'espère...
  • Bref

Jours heureux (2007)

Blancs Manteaux à Volo (2006)

Bien Zarbos (2004)

Tablature : Histoire sympa

20-07-2010

Partager cette tablature

Télécharger la version imprimable




Ecouter un extrait composé de différentes parties de la tablature :


Intro :

    C7      D7                   E7                   C7
e |-x-x-x-|-x--x--------x--x-x-|-x--x--------x--x-x-|-x-x------x-x-x-|
B |-x-x-x-|-10-x--------10-x-x-|-12-x--------12-x-x-|-8-x------8-x-x-|
G |-x-x-x-|-x--x--------x--x-x-|-x--x--------x--x-x-|-x-x------x-x-x-|
D |-8-x-x-|-10-x-10-----10-x-x-|-12-x-12-----12-x-x-|-8-x-8----8-x-x-|
A |-7-x-x-|-9--x-9------9--x-x-|-11-x-11-----11-x-x-|-7-x-7----7-x-x-|
E |-8-x-x-|-10-x-10-10--10-x-x-|-12-x-12-12--12-x-x-|-8-x-8-8--8-x-x-|

    D7                   D7                   E7                   C7               C7
e |-x--x--------x--x-x-|-x--x--------x--x-x-|-x--x--------x--x-x-|-x-x------x-x-x-|-x-|
B |-10-x--------10-x-x-|-10-x--------10-x-x-|-12-x--------12-x-x-|-8-x------8-x-x-|-8-|
G |-x--x--------x--x-x-|-x--x--------x--x-x-|-x--x--------x--x-x-|-x-x------x-x-x-|-x-|
D |-10-x-10-----10-x-x-|-10-x-10-----10-x-x-|-12-x-12-----12-x-x-|-8-x-8----8-x-x-|-8-|
A |-9--x-9------9--x-x-|-9--x-9------9--x-x-|-11-x-11-----11-x-x-|-7-x-7----7-x-x-|-7-|
E |-10-x-10-10--10-x-x-|-10-x-10-10--10-x-x-|-12-x-12-12--12-x-x-|-8-x-8-8--8-x-x-|-8-|


1er couplet :

   C7      D7                   E7                   C7               D7
e |x-x-x-|-x--x--------x--x-x-|-x--x--------x--x-x-|-x-x------x-x-x-|-x--x--------x--x-x-|
B |x-x-x-|-10-x--------10-x-x-|-12-x--------12-x-x-|-8-x------8-x-x-|-10-x--------10-x-x-|
G |x-x-x-|-x--x--------x--x-x-|-x--x--------x--x-x-|-x-x------x-x-x-|-x--x--------x--x-x-|
D |8-x-x-|-10-x-10-----10-x-x-|-12-x-12-----12-x-x-|-8-x-8----8-x-x-|-10-x-10-----10-x-x-|
A |7-x-x-|-9--x-9------9--x-x-|-11-x-11-----11-x-x-|-7-x-7----7-x-x-|-9--x-9------9--x-x-|
E |8-x-x-|-10-x-10-10--10-x-x-|-12-x-12-12--12-x-x-|-8-x-8-8--8-x-x-|-10-x-10-10--10-x-x-|

    D7                   E7                   C7               C7
e |-x--x--------x--x-x-|-x--x--------x--x-x-|-x-x------x-x-x-|-x-x------x-x-x-|
B |-10-x--------10-x-x-|-12-x--------12-x-x-|-8-x------8-x-x-|-8-x------8-x-x-|
G |-x--x--------x--x-x-|-x--x--------x--x-x-|-x-x------x-x-x-|-x-x------x-x-x-|
D |-10-x-10-----10-x-x-|-12-x-12-----12-x-x-|-8-x-8----8-x-x-|-8-x-8----8-x-x-|
A |-9--x-9------9--x-x-|-11-x-11-----11-x-x-|-7-x-7----7-x-x-|-7-x-7----7-x-x-|
E |-10-x-10-10--10-x-x-|-12-x-12-12--12-x-x-|-8-x-8-8--8-x-x-|-8-x-8-8--8-x-x-|

    D7                   E7                   C7               D7
e |-x--x--------x--x-x-|-x--x--------x--x-x-|-x-x------x-x-x-|-x--x--------x--x-x-|
B |-10-x--------10-x-x-|-12-x--------12-x-x-|-8-x------8-x-x-|-10-x--------10-x-x-|
G |-x--x--------x--x-x-|-x--x--------x--x-x-|-x-x------x-x-x-|-x--x--------x--x-x-|
D |-10-x-10-----10-x-x-|-12-x-12-----12-x-x-|-8-x-8----8-x-x-|-10-x-10-----10-x-x-|
A |-9--x-9------9--x-x-|-11-x-11-----11-x-x-|-7-x-7----7-x-x-|-9--x-9------9--x-x-|
E |-10-x-10-10--10-x-x-|-12-x-12-12--12-x-x-|-8-x-8-8--8-x-x-|-10-x-10-10--10-x-x-|

    D7                   E7                   C7               C7
e |-x--x--------x--x-x-|-x--x--------x--x-x-|-x-x------x-x-x-|-x-x---x-x-x-|
B |-10-x--------10-x-x-|-12-x--------12-x-x-|-8-x------8-x-x-|-8-x---8-8-x-|
G |-x--x--------x--x-x-|-x--x--------x--x-x-|-x-x------x-x-x-|-x-x---x-x-x-|
D |-10-x-10-----10-x-x-|-12-x-12-----12-x-x-|-8-x-x-x--8-x-x-|-8-x-x-8-8-x-|
A |-9--x-9------9--x-x-|-11-x-11-----11-x-x-|-7-x-x-x--7-x-x-|-7-x-x-7-7-x-|
E |-10-x-10-10--10-x-x-|-12-x-12-12--12-x-x-|-8-x-x-x--8-x-x-|-8-x-x-8-8-x-|

    D7                   E7                   C7               D7
e |-x--x--------x--x-x-|-x--x--------x--x-x-|-x-x------x-x-x-|-x--x--------x--x-x-|
B |-10-x--------10-x-x-|-12-x--------12-x-x-|-8-x------8-x-x-|-10-x--------10-x-x-|
G |-x--x--------x--x-x-|-x--x--------x--x-x-|-x-x------x-x-x-|-x--x--------x--x-x-|
D |-10-x-10-----10-x-x-|-12-x-12-----12-x-x-|-8-x-8----8-x-x-|-10-x-10-----10-x-x-|
A |-9--x-9------9--x-x-|-11-x-11-----11-x-x-|-7-x-7----7-x-x-|-9--x-9------9--x-x-|
E |-10-x-10-10--10-x-x-|-12-x-12-12--12-x-x-|-8-x-8-8--8-x-x-|-10-x-10-10--10-x-x-|

    D7                   E7                   C7               C7
e |-x--x--------x--x-x-|-x--x--------x--x-x-|-x-x------x-x-x-|-x-x------x-x-x-|
B |-10-x--------10-x-x-|-12-x--------12-x-x-|-8-x------8-x-x-|-8-x------8-x-x-|
G |-x--x--------x--x-x-|-x--x--------x--x-x-|-x-x------x-x-x-|-x-x------x-x-x-|
D |-10-x-10-----10-x-x-|-12-x-12-----12-x-x-|-8-x-8----8-x-x-|-8-x-8----8-x-x-|
A |-9--x-9------9--x-x-|-11-x-11-----11-x-x-|-7-x-7----7-x-x-|-7-x-7----7-x-x-|
E |-10-x-10-10--10-x-x-|-12-x-12-12--12-x-x-|-8-x-8-8--8-x-x-|-8-x-8-8--8-x-x-|

    D7                   E7                   C7               D7
e |-x--x--------x--x-x-|-x--x--------x--x-x-|-x-x------x-x-x-|-x--x--------x--x-x-|
B |-10-x--------10-x-x-|-12-x--------12-x-x-|-8-x------8-x-x-|-10-x--------10-x-x-|
G |-x--x--------x--x-x-|-x--x--------x--x-x-|-x-x------x-x-x-|-x--x--------x--x-x-|
D |-10-x-10-----10-x-x-|-12-x-12-----12-x-x-|-8-x-8----8-x-x-|-10-x-10-----10-x-x-|
A |-9--x-9------9--x-x-|-11-x-11-----11-x-x-|-7-x-7----7-x-x-|-9--x-9------9--x-x-|
E |-10-x-10-10--10-x-x-|-12-x-12-12--12-x-x-|-8-x-8-8--8-x-x-|-10-x-10-10--10-x-x-|

    D7                   E7                   C7               C7
e |-x--x--------x--x-x-|-x--x--------x--x-x-|-x-x------x-x-x-|-x-x------x-x-x-|
B |-10-x--------10-x-x-|-12-x--------12-x-x-|-8-x------8-x-x-|-8-x------8-x-x-|
G |-x--x--------x--x-x-|-x--x--------x--x-x-|-x-x------x-x-x-|-x-x------x-x-x-|
D |-10-x-10-----10-x-x-|-12-x-12-----12-x-x-|-8-x-8----8-x-x-|-8-x-8----8-x-x-|
A |-9--x-9------9--x-x-|-11-x-11-----11-x-x-|-7-x-7----7-x-x-|-7-x-7----7-x-x-|
E |-10-x-10-10--10-x-x-|-12-x-12-12--12-x-x-|-8-x-8-8--8-x-x-|-8-x-8-8--8-x-x-|

Les accords (sans "l'anacrouse") :
D7 | E7 | C7 | D7 | D7 | E7 | C7 | C7 | D7 | E7 | C7 | D7 |
D7 | E7 | C7 | C7 | D7 | E7 | C7 | D7 | D7 | E7 | C7 | C7 |
D7 | E7 | C7 | D7 | D7 | E7 | C7 | C7

Refrain :

     A11#9            D7               F11#9            C7
e ||---x--------x-x-|-5-x------5-x-x-|---x--------x-x-|-2-x------2-x-x-||
B ||-5-x--------x-x-|-x-x------x-x-x-|-1-x--------x-x-|-x-x------x-x-x-||
G ||-6-x-6----6-x-x-|-5-x-5----5-x-x-|-2-x-2----2-x-x-|-2-x-2----2-x-x-||
D ||-7-x-7----7-x-x-|-4-x-4----4-x-x-|-3-x-3----3-x-x-|-1-x-1----1-x-x-|| (x4)
A ||-5-x-5----5-x-x-|-5-x-5-5--5-x-x-|-1-x-1----1-x-x-|-2-x-2-2--2-x-x-||
E ||-7-x-7-7--7-x-x-|---x-x-x--x-x-x-|-3-x-3-3--3-x-x-|---x-x-x--x-x-x-||


2ème couplet :

   C7      D7                   E7                   C7               D7
e |x-x-x-|-x--x--------x--x-x-|-x--x--------x--x-x-|-x-x------x-x-x-|-x--x--------x--x-x-|
B |x-x-x-|-10-x--------10-x-x-|-12-x--------12-x-x-|-8-x------8-x-x-|-10-x--------10-x-x-|
G |x-x-x-|-x--x--------x--x-x-|-x--x--------x--x-x-|-x-x------x-x-x-|-x--x--------x--x-x-|
D |8-x-x-|-10-x-10-----10-x-x-|-12-x-12-----12-x-x-|-8-x-8----8-x-x-|-10-x-10-----10-x-x-|
A |7-x-x-|-9--x-9------9--x-x-|-11-x-11-----11-x-x-|-7-x-7----7-x-x-|-9--x-9------9--x-x-|
E |8-x-x-|-10-x-10-10--10-x-x-|-12-x-12-12--12-x-x-|-8-x-8-8--8-x-x-|-10-x-10-10--10-x-x-|

    D7                   E7                   C7               C7
e |-x--x--------x--x-x-|-x--x--------x--x-x-|-x-x------x-----|---x------x-x-x-|
B |-10-x--------10-x-x-|-12-x--------12-x-x-|-8-x------8-----|---x------8-x-x-|
G |-x--x--------x--x-x-|-x--x--------x--x-x-|-x-x------x-x---|---x------x-x-x-|
D |-10-x-10-----10-x-x-|-12-x-12-----12-x-x-|-8-x-8----8-x---|---x------8-x-x-|
A |-9--x-9------9--x-x-|-11-x-11-----11-x-x-|-7-x-7----7-x---|---x------7-x-x-|
E |-10-x-10-10--10-x-x-|-12-x-12-12--12-x-x-|-8-x-8-8--8-x-8-|-8-x-8-8--8-x-x-|

    D7                   E7                   C7               D7
e |-x--x--------x--x-x-|-x--x--------x--x-x-|-x-x------x-x-x-|-x--x--------x--x-x-|
B |-10-x--------10-x-x-|-12-x--------12-x-x-|-8-x------8-x-x-|-10-x--------10-x-x-|
G |-x--x--------x--x-x-|-x--x--------x--x-x-|-x-x------x-x-x-|-x--x--------x--x-x-|
D |-10-x-10-----10-x-x-|-12-x-12-----12-x-x-|-8-x-8----8-x-x-|-10-x-10-----10-x-x-|
A |-9--x-9------9--x-x-|-11-x-11-----11-x-x-|-7-x-7----7-x-x-|-9--x-9------9--x-x-|
E |-10-x-10-10--10-x-x-|-12-x-12-12--12-x-x-|-8-x-8-8--8-x-x-|-10-x-10-10--10-x-x-|

    D7                   E7                   C7                C7    D7
e |-x--x--------x--x-x-|-x--x--------x--x-x-|-x-x----------x--|-x-x-x-x--x----|
B |-10-x--------10-x-x-|-12-x--------12-x-x-|-x-8---------8---|-8-x-x-10-10---|
G |-x--x--------x--x-x-|-x--x--------x--x-x-|-x-x--------x----|-x-x-x-x--x----|
D |-10-x-10-----10-x-x-|-12-x-12-----12-x-x-|-x-8-------8-----|-8-x-x-10-10---|
A |-9--x-9------9--x-x-|-11-x-11-----11-x-x-|-x-7------7------|-7-x-x-9--9----|
E |-10-x-10-10--10-x-x-|-12-x-12-12--12-x-x-|-x-8-----8-------|-8-x-x-10-10---|

                         C7
e |--------------------|-x-x-x-x-x------x----x-x-x-x-x-x-|
B |--------------------|-x-x-x-x-8------8----8-x-x-8-8-x-|
G |--------------------|-x-x-x-x-x------x----x-x-x-x-x-x-|
D |--------------------|-x-x-x-x-8------8----8-x-x-8-8-x-|
A |--------------------|-x-x-x-x-7------7----7-x-x-7-7-x-|
E |--------------------|-x-x-x-x-8------8----8-x-x-8-8-x-|

    D7                   E7                   C7               C7
e |-x--x--------x--x-x-|-x--x--------x--x-x-|-x-x------x-x-x-|-x-x------x-x-x-|
B |-10-x--------10-x-x-|-12-x--------12-x-x-|-8-x------8-x-x-|-8-x------8-x-x-|
G |-x--x--------x--x-x-|-x--x--------x--x-x-|-x-x------x-x-x-|-x-x------x-x-x-|
D |-10-x-10-----10-x-x-|-12-x-12-----12-x-x-|-8-x-8----8-x-x-|-8-x-8----8-x-x-|
A |-9--x-9------9--x-x-|-11-x-11-----11-x-x-|-7-x-7----7-x-x-|-7-x-7----7-x-x-|
E |-10-x-10-10--10-x-x-|-12-x-12-12--12-x-x-|-8-x-8-8--8-x-x-|-8-x-8-8--8-x-x-|

    D7                   E7                   C7               D7
e |-x--x--------x--x-x-|-x--x--------x--x-x-|-x-x------x-x-x-|-x--x--------x--x-x-|
B |-10-x--------10-x-x-|-12-x--------12-x-x-|-8-x------8-x-x-|-10-x--------10-x-x-|
G |-x--x--------x--x-x-|-x--x--------x--x-x-|-x-x------x-x-x-|-x--x--------x--x-x-|
D |-10-x-10-----10-x-x-|-12-x-12-----12-x-x-|-8-x-8----8-x-x-|-10-x-10-----10-x-x-|
A |-9--x-9------9--x-x-|-11-x-11-----11-x-x-|-7-x-7----7-x-x-|-9--x-9------9--x-x-|
E |-10-x-10-10--10-x-x-|-12-x-12-12--12-x-x-|-8-x-8-8--8-x-x-|-10-x-10-10--10-x-x-|

    D7                   E7                   C7               C7
e |-x--x--------x--x-x-|-x--x--------x--x-x-|-x-x------x-x-x-|-x-x------x-x-x-|
B |-10-x--------10-x-x-|-12-x--------12-x-x-|-8-x------8-x-x-|-8-x------8-x-x-|
G |-x--x--------x--x-x-|-x--x--------x--x-x-|-x-x------x-x-x-|-x-x------x-x-x-|
D |-10-x-10-----10-x-x-|-12-x-12-----12-x-x-|-8-x-8----8-x-x-|-8-x-8----8-x-x-|
A |-9--x-9------9--x-x-|-11-x-11-----11-x-x-|-7-x-7----7-x-x-|-7-x-7----7-x-x-|
E |-10-x-10-10--10-x-x-|-12-x-12-12--12-x-x-|-8-x-8-8--8-x-x-|-8-x-8-8--8-x-x-|


Refrain :

     A11#9            D7               F11#9            C7
e ||---x--------x-x-|-5-x------5-x-x-|---x--------x-x-|-2-x------2-x-x-||
B ||-5-x--------x-x-|-x-x------x-x-x-|-1-x--------x-x-|-x-x------x-x-x-||
G ||-6-x-6----6-x-x-|-5-x-5----5-x-x-|-2-x-2----2-x-x-|-2-x-2----2-x-x-||
D ||-7-x-7----7-x-x-|-4-x-4----4-x-x-|-3-x-3----3-x-x-|-1-x-1----1-x-x-|| (x4)
A ||-5-x-5----5-x-x-|-5-x-5-5--5-x-x-|-1-x-1----1-x-x-|-2-x-2-2--2-x-x-||
E ||-7-x-7-7--7-x-x-|---x-x-x--x-x-x-|-3-x-3-3--3-x-x-|---x-x-x--x-x-x-||


Fin :

              D7                   D7
e |-x-x-x- ||-x--x--------x--x-x-|-x--x--------x--x-x-||
B |-x-x-x- ||-10-x--------10-x-x-|-10-x--------10-x-x-||
G |-x-x-x- ||-x--x--------x--x-x-|-x--x--------x--x-x-|| (x5)
D |-x-x-x- ||-10-x-10-----10-x-x-|-10-x-10-----10-x-x-||
A |-x-x-x- ||-9--x-9------9--x-x-|-9--x-9------9--x-x-||
E |-x-x-x- ||-10-x-10-10--10-x-x-|-10-x-10-10--10-x-x-||

    D7                   D7                     D7        C7           D7
e |-x--x--------x--x-x-|-x--x--------x--x--x--|-x--x-x-x--x----x-x-x-|-x--||
B |-10-x--------10-x-x-|-10-x--------10-10-10-|-10-x-x-x--9----9-x-x-|-10-||
G |-x--x--------x--x-x-|-x--x--------x--x--x--|-x--x-x-x--x----x-x-x-|-x--||
D |-10-x-10-----10-x-x-|-10-x-10-----10-10-10-|-10-x-x-x--9----9-x-x-|-10-||
A |-9--x-9------9--x-x-|-9--x-9------9--9--9--|-9--x-x-x--8----8-x-x-|-9--||
E |-10-x-10-10--10-x-x-|-10-x-10-10--10-10-10-|-10-x-x-x--9-9--9-x-x-|-10-||



Paroles

Il fallait que je prenne le train à tout prix
D'ailleurs je ne me suis pas fait chier, je l'ai pris
Sans billet sans ticket sans titre de transport
J'espérais seulement ne pas tomber sur un de ces gros porcs
Au sourire sadique quand il vous demande
Une pièce d'identité oh oui c'est sûr il bande
Il doit jouir trop fort ça se voit dans le plus profond de son regard
Quand il vous dit monsieur je vous fous dehors à la prochaine gare
Mais hallucinant pour moi ce jour-là le trajet fut d'enfer
A marquer dans les annales du chemin de fer
Le contrôleur en fait était une contrôleuse
Petite culotte à fleurs, un corps de danseuse
Elle m'a fait l'amour, je meurs si je mens
(Pa-pa-pa)
Dans un compartiment
Elle m'a tout fait goûter
Les banquettes et les portes bagages
Et m'a laissé sa casquette souvenir du voyage

Aaaha
C'est une histoire sympa
Aaaha
Ca s'peut pas
Et pourquoi pas Aaaha ?
C'est une histoire sympa
Aaaha
Ca s'peut pas
Et pourquoi pas ?

Sur le quai de la gare
Cheveux ébouriffés
Le regard hagard
Je veux aller me chercher à bouffer
Soudain un chien me barre le passage
J'entends : "Viens là Rintintin !"
Et le chien se dégage
C'est une fille qui l'appelle
Oh, mon dieu ce qu'elle est belle
Habillée junkie tendance keupon inspiration babos
Mais l'habit ne faisant pas le moine
C'est une fausse
Putain de merde, c'est la douane
Dix minutes plus tard elle a fouillé mon sac
L'interrogatoire pas de coke, pas d'héro, pas de crack
Dans six mètres carrés en caleçon pathétique
J'ai failli pleurer quand je l'ai vue sortir son
gant en plastique
Mais en fait c'est menotté au radiateur
Qu'elle m'a fait l'amour version ministère de l'intérieur
Passage à tabac toutes lumières éteintes
Mais bon je n'irais pas, non, je n'irais pas porter plainte

Aaaha
C'est une histoire sympa
Aaaha
Ca s'peut pas
Et pourquoi pas Aaaha ?
C'est une histoire sympa sympa
Aaaha
Ca s'peut pas
Et pourquoi pas ?

Quand on fait l'amour
Il y a le fond et la forme
Et moi depuis ce jour
Je suis à fond pour l'uniforme
Quand on fait l'amour
Il y a le fond et la forme
Et moi depuis ce jour
Je suis à fond pour l'uniforme
Quand on fait l'amour
Il y a le fond et la forme
Et moi depuis ce jour
Je suis à fond pour l'uniforme

Aaaha