Tabsvolo.net - Tablature : J'hésite


 Les tablatures : 68

Chanson française (2017)

Sans rire (2013)

C'est pas tout ça... (2010)

En attendant (2009)

Bref... Septembre 2008

  • Ma p'tite chanson
  • J'espère...
  • Bref

Jours heureux (2007)

Blancs Manteaux à Volo (2006)

Bien Zarbos (2004)

Tablature : J'hésite

15-04-2016

Partager cette tablature

Télécharger la version imprimable 


Ecouter un extrait composé de différentes parties de la tablature :



Légende :
||------|| (xN) : Jouer N fois la partie entre les ||
                 x : Corde jouée étouffée
                 ^ : Pull-on
                 > : Slide montant
                 < : Slide descendant

Note :
La plupart du temps, lorsqu'il y a deux -x- qui se suivent ==> --x-x--,
le premier est en fait joué "à vide" (sans l'étouffer...)
Bien écouter le morceau (en bas de page) ;)

Intro :

           Bm                        Em        Bm                    Em    Bm
e ||---0-0---|-----2-x-x-2-x-------2-0-0-0---|-----2-x-x-2-x-------2-0-0-0---|
B ||---0-0---|-----3-x-x-3-x-------3-0-0-0---|-----3-x-x-3-x-------3-0-0-0---|
G ||-x-0-0---|-----4-x-x-4-x-------4-0-0-0---|-----4-x-x-4-x-------4-0-0-0---|
D ||-x-0-0-2-|-2^4-4-x-x-4-x-2-2^4-4---2-2-2-|-2^4-4-x-x-4-x-2-2^4-4---2-2-2-|
A ||-x-x-x-2-|-2---2-x-x-2-x-2-2---2---2-2-2-|-2---2-x-x-2-x-2-2---2---2-2-2-|
E ||-x-x-x-2-|-2---2-x-x-2-x-2-2---2---0-0-2-|-2---2-x-x-2-x-2-2---2---0-0-2-|

Premier couplet :

    Bm                    Em    Bm                        Em    G                           Em  A                 F#m                Bm
e |-----2-x-x-2-x-------2-0-0-0---|-----2-x-x-2-x-------2-0-0-0---|-----3-x-x-3-x-----3-x-x-7-x---|-----5-x-x-5-x--------9--x-x-9--x---|
B |-----3-x-x-3-x-------3-0-0-0---|-----3-x-x-3-x-------3-0-0-0---|-----3-x-x-3-x-----3-x-x-8-x---|-----5-x-x-5-x--------10-x-x-10-x---|
G |-----4-x-x-4-x-------4-0-0-0---|-----4-x-x-4-x-------4-0-0-0---|-----4-x-x-4-x-----4-x-x-9-x---|-----6-x-x-6-x--------11-x-x-11-x---|
D |-2^4-4-x-x-4-x-2-2^4-4---2-2-2-|-2^4-4-x-x-4-x-2-2^4-4---2-2-3-|-3^5-5-x-x-5-x-3^5-5-x-x-9-x-5-|-5^7-7-x-x-7-x-9-9^11-11-x-x-11-x-2-|
A |-2---2-x-x-2-x-2-2---2---2-2-2-|-2---2-x-x-2-x-2-2---2---2-2-3-|-3^5-5-x-x-5-x-3^5-5-x-x-7-x-5-|-5^7-7-x-x-7-x-9-9----9--x-x-9--x-2-|
E |-2---2-x-x-2-x-2-2---2---0-0-2-|-2---2-x-x-2-x-2-2---2---0-0-3-|-3---3-x-x-3-x-3---3->->-7-<-5-|-5---5-x-x-5-x>9-9----9--x-x-9--x-2-|

    Bm                    Em    Bm                        Em    G                           Em  A                             Bm
e |-----2-x-x-2-x-------2-0-0-0---|-----2-x-x-2-x-------2-0-0-0---|-----3-x-x-3-x-----3-x-x-7-x---|-----5-x-x-5-x-x-x-x-x-x-x---|
B |-----3-x-x-3-x-------3-0-0-0---|-----3-x-x-3-x-------3-0-0-0---|-----3-x-x-3-x-----3-x-x-8-x---|-----5-x-x-5-x-x-x-x-x-x-x---|
G |-----4-x-x-4-x-------4-0-0-0---|-----4-x-x-4-x-------4-0-0-0---|-----4-x-x-4-x-----4-x-x-9-x---|-----6-x-x-6-x-x-x-x-x-x-x---|
D |-2^4-4-x-x-4-x-2-2^4-4---2-2-2-|-2^4-4-x-x-4-x-2-2^4-4---2-2-3-|-3^5-5-x-x-5-x-3^5-5-x-x-9-x-5-|-5^7-7-x-x-7-x-x-x-x-x-x-x-2-|
A |-2---2-x-x-2-x-2-2---2---2-2-2-|-2---2-x-x-2-x-2-2---2---2-2-3-|-3^5-5-x-x-5-x-3^5-5-x-x-7-x-5-|-5^7-7-x-x-7-x-x-x-x-x-x-x-2-|
E |-2---2-x-x-2-x-2-2---2---0-0-2-|-2---2-x-x-2-x-2-2---2---0-0-3-|-3---3-x-x-3-x-3---3->->-7-<-5-|-5---5-x-x-5-x-x-x-x-x-x-<-2-|

    Bm                    Em    Bm                        Em    G                           Em  A                 F#m                Bm
e |-----2-x-x-2-x-------2-0-0-0---|-----2-x-x-2-x-------2-0-0-0---|-----3-x-x-3-x-----3-x-x-7-x---|-----5-x-x-5-x--------9--x-x-9--x---|
B |-----3-x-x-3-x-------3-0-0-0---|-----3-x-x-3-x-------3-0-0-0---|-----3-x-x-3-x-----3-x-x-8-x---|-----5-x-x-5-x--------10-x-x-10-x---|
G |-----4-x-x-4-x-------4-0-0-0---|-----4-x-x-4-x-------4-0-0-0---|-----4-x-x-4-x-----4-x-x-9-x---|-----6-x-x-6-x--------11-x-x-11-x---|
D |-2^4-4-x-x-4-x-2-2^4-4---2-2-2-|-2^4-4-x-x-4-x-2-2^4-4---2-2-3-|-3^5-5-x-x-5-x-3^5-5-x-x-9-x-5-|-5^7-7-x-x-7-x-9-9^11-11-x-x-11-x-2-|
A |-2---2-x-x-2-x-2-2---2---2-2-2-|-2---2-x-x-2-x-2-2---2---2-2-3-|-3^5-5-x-x-5-x-3^5-5-x-x-7-x-5-|-5^7-7-x-x-7-x-9-9----9--x-x-9--x-2-|
E |-2---2-x-x-2-x-2-2---2---0-0-2-|-2---2-x-x-2-x-2-2---2---0-0-3-|-3---3-x-x-3-x-3---3->->-7-<-5-|-5---5-x-x-5-x>9-9----9--x-x-9--x-2-|

    Bm                    Em    Bm                        Em    G                           Em  A                 F#m                Bm
e |-----2-x-x-2-x-------2-0-0-0---|-----2-x-x-2-x-------2-0-0-0---|-----3-x-x-3-x-----3-x-x-7-x---|-----5-x-x-5-x--------9--x-x-9--x---|
B |-----3-x-x-3-x-------3-0-0-0---|-----3-x-x-3-x-------3-0-0-0---|-----3-x-x-3-x-----3-x-x-8-x---|-----5-x-x-5-x--------10-x-x-10-x---|
G |-----4-x-x-4-x-------4-0-0-0---|-----4-x-x-4-x-------4-0-0-0---|-----4-x-x-4-x-----4-x-x-9-x---|-----6-x-x-6-x--------11-x-x-11-x---|
D |-2^4-4-x-x-4-x-2-2^4-4---2-2-2-|-2^4-4-x-x-4-x-2-2^4-4---2-2-3-|-3^5-5-x-x-5-x-3^5-5-x-x-9-x-5-|-5^7-7-x-x-7-x-9-9^11-11-x-x-11-x-2-|
A |-2---2-x-x-2-x-2-2---2---2-2-2-|-2---2-x-x-2-x-2-2---2---2-2-3-|-3^5-5-x-x-5-x-3^5-5-x-x-7-x-5-|-5^7-7-x-x-7-x-9-9----9--x-x-9--x-2-|
E |-2---2-x-x-2-x-2-2---2---0-0-2-|-2---2-x-x-2-x-2-2---2---0-0-3-|-3---3-x-x-3-x-3---3->->-7-<-5-|-5---5-x-x-5-x>9-9----9--x-x-9--x-2-|

    Bm                                                        Em    C#
e |-----2-x-x-x-2-x-x-x-2-x-x-|-x-2-x-x-x-2-x-x-x-2-x-x-|-x-2-0-0-0----|
B |-----3-x-x-x-3-x-x-x-3-x-x-|-x-3-x-x-x-3-x-x-x-3-x-x-|-x-3-0-0-0----|
G |-----4-x-x-x-4-x-x-x-4-x-x-|-x-4-x-x-x-4-x-x-x-4-x-x-|-x-4-0-0-0----|
D |-2^4-4-x-x-x-4-x-x-x-4-x-x-|-x-4-x-x-x-4-x-x-x-4-x-x-|-x-4---2-2-11-|
A |-2---2-x-x-x-2-x-x-x-2-x-x-|-x-2-x-x-x-2-x-x-x-2-x-x-|-x-2---2-2-11-|
E |-2---2-x-x-x-2-x-x-x-2-x-x-|-x-2-x-x-x-2-x-x-x-2-x-x-|-x-2---0-0>9--|

Refrains :

    C#                                    D                                        A
e |------9--x-x-9--x---------9--x-x-9--x----|------10-x-x-10-x---------10-x-x-10-x---|
B |------9--x-x-9--x---------9--x-x-9--x----|------10-x-x-10-x---------10-x-x-10-x---|
G |------10-x-x-10-x---------10-x-x-10-x----|------11-x-x-11-x---------11-x-x-11-x---|
D |-11---11-x-x-11-x-11-11---11-x-x-11-x-12-|-12---12-x-x-12-x-12-12---12-x-x-12-x-7-|
A |-11---11-x-x-11-x-11-11---11-x-x-11-x-12-|-12---12-x-x-12-x-12-12---12-x-x-12-x-7-|
E |-9----9--x-x-9--x-9--9----9--x-x-9--x-10-|-10---10-x-x-10-x-10-10---10-x-x-10-x-5-|

    A                             E                                 C#
e |-----5-x-x-5-x-------5-x-x-5-x---|-----0-x-x-0-x-------0-x-x-0-x----|
B |-----5-x-x-5-x-------5-x-x-5-x---|-----0-x-x-0-x-------1-x-x-1-x----|
G |-----6-x-x-6-x-------6-x-x-6-x---|-----1-x-x-1-x-------1-x-x-1-x----|
D |-7---7-x-x-7-x-7-7---7-x-x-7-x-2-|-2---2-x-x-2-x-2-2---2-x-x-2-x-11-|
A |-7---7-x-x-7-x-7-7---7-x-x-7-x-2-|-2---2-x-x-2-x-2-2---2-x-x-2-x-11-|
E |-5---5-x-x-5-x-5-5---5-x-x-5-x-0-|-0---0-x-x-0-x-0-0---0-x-x-0->-9--|

    C#                                    D                                        A
e |------9--x-x-9--x---------9--x-x-9--x----|------10-x-x-10-x---------10-x-x-10-x---|
B |------9--x-x-9--x---------9--x-x-9--x----|------10-x-x-10-x---------10-x-x-10-x---|
G |------10-x-x-10-x---------10-x-x-10-x----|------11-x-x-11-x---------11-x-x-11-x---|
D |-11---11-x-x-11-x-11-11---11-x-x-11-x-12-|-12---12-x-x-12-x-12-12---12-x-x-12-x-7-|
A |-11---11-x-x-11-x-11-11---11-x-x-11-x-12-|-12---12-x-x-12-x-12-12---12-x-x-12-x-7-|
E |-9----9--x-x-9--x-9--9----9--x-x-9--x-10-|-10---10-x-x-10-x-10-10---10-x-x-10-x-5-|

    A                             E                                 D
e |-----5-x-x-5-x-------5-x-x-5-x---|-----0-x-x-0-x-------0-x-x-0-x----|
B |-----5-x-x-5-x-------5-x-x-5-x---|-----0-x-x-0-x-------1-x-x-1-x----|
G |-----6-x-x-6-x-------6-x-x-6-x---|-----1-x-x-1-x-------1-x-x-1-x----|
D |-7---7-x-x-7-x-7-7---7-x-x-7-x-2-|-2---2-x-x-2-x-2-2---2-x-x-2-x-12-|
A |-7---7-x-x-7-x-7-7---7-x-x-7-x-2-|-2---2-x-x-2-x-2-2---2-x-x-2-x-12-|
E |-5---5-x-x-5-x-5-5---5-x-x-5-x-0-|-0---0-x-x-0-x-0-0---0-x-x-0->-10-|

    D                                         C#
e |------10-x-x-10-x---------10-x-x-10-x----|------9--x-x-9--x---------9--x-x-9--x---|
B |------10-x-x-10-x---------10-x-x-10-x----|------9--x-x-9--x---------9--x-x-9--x---|
G |------11-x-x-11-x---------11-x-x-11-x----|------10-x-x-10-x---------10-x-x-10-x---|
D |-12---12-x-x-12-x-12-12---12-x-x-12-x-11-|-11---11-x-x-11-x-11-11---11-x-x-11-x-4-|
A |-12---12-x-x-12-x-12-12---12-x-x-12-x-11-|-11---11-x-x-11-x-11-11---11-x-x-11-x-2-|
E |-10---10-x-x-10-x-10-10---10-x-x-10-x-9--|-9----9--x-x-9--x-9--9----9--x-x-9--x-2-|

    Bm                                       E                                  F#m
e |-2-----2-----2------------------2-2-----|-0-----0--------------------------------|
B |-3-----3-----3------------------3-3-----|-0-----0--------------------------------|
G |-4-----4-----4------------------4-4-----|-1-----1------------------------1-1-x-x-|
D |-4-----4-----4------------------4-4-0-0-|-2-----2------------------------2-2-x-9-|
A |-2-----2-----2------------------2-2-0-0-|-2-----2------------------------2-2-x-9-|
E |-2-----2-----2------------------2-2-0-0-|-0-----0------------------------0-0->-9-|

    F#m                                    F#m                                    Bm
e |-----9--x-x-9--x--------9--x-x-9--x---|------9--x-x-9--x-------------------------|
B |-----10-x-x-10-x--------10-x-x-10-x---|------10-x-x-10-x-------------------------|
G |-----11-x-x-11-x--------11-x-x-11-x---|------11-x-x-11-x-------------------------|
D |-9---11-x-x-11-x-9-9^11-11-x-x-11-x-9-|-9^11-11-x-x-11-x-9-9^11-11-9-----------2-|
A |-9---9--x-x-9--x-9-9----9--x-x-9--x-9-|-9----9--x-x-9--x-9-9----9--9-----------2-|
E |-9---9--x-x-9--x-9-9----9--x-x-9--x-9-|-9----9--x-x-9--x-9-9----9--9-11>-------2-|

Deuxième couplet :

    Bm                    Em    Bm                        Em    G                           Em  A                 F#m                Bm
e |-----2-x-x-2-x-------2-0-0-0---|-----2-x-x-2-x-------2-0-0-0---|-----3-x-x-3-x-----3-x-x-7-x---|-----5-x-x-5-x--------9--x-x-9--x---|
B |-----3-x-x-3-x-------3-0-0-0---|-----3-x-x-3-x-------3-0-0-0---|-----3-x-x-3-x-----3-x-x-8-x---|-----5-x-x-5-x--------10-x-x-10-x---|
G |-----4-x-x-4-x-------4-0-0-0---|-----4-x-x-4-x-------4-0-0-0---|-----4-x-x-4-x-----4-x-x-9-x---|-----6-x-x-6-x--------11-x-x-11-x---|
D |-2^4-4-x-x-4-x-2-2^4-4---2-2-2-|-2^4-4-x-x-4-x-2-2^4-4---2-2-3-|-3^5-5-x-x-5-x-3^5-5-x-x-9-x-5-|-5^7-7-x-x-7-x-9-9^11-11-x-x-11-x-2-|
A |-2---2-x-x-2-x-2-2---2---2-2-2-|-2---2-x-x-2-x-2-2---2---2-2-3-|-3^5-5-x-x-5-x-3^5-5-x-x-7-x-5-|-5^7-7-x-x-7-x-9-9----9--x-x-9--x-2-|
E |-2---2-x-x-2-x-2-2---2---0-0-2-|-2---2-x-x-2-x-2-2---2---0-0-3-|-3---3-x-x-3-x-3---3->->-7-<-5-|-5---5-x-x-5-x>9-9----9--x-x-9--x-2-|

Jouer 4 fois la ligne précédente


    Bm                                                        Em    C#
e |-----2-x-x-x-2-x-x-x-2-x-x-|-x-2-x-x-x-2-x-x-x-2-x-x-|-x-2-0-0-0----|
B |-----3-x-x-x-3-x-x-x-3-x-x-|-x-3-x-x-x-3-x-x-x-3-x-x-|-x-3-0-0-0----|
G |-----4-x-x-x-4-x-x-x-4-x-x-|-x-4-x-x-x-4-x-x-x-4-x-x-|-x-4-0-0-0----|
D |-2^4-4-x-x-x-4-x-x-x-4-x-x-|-x-4-x-x-x-4-x-x-x-4-x-x-|-x-4---2-2-11-|
A |-2---2-x-x-x-2-x-x-x-2-x-x-|-x-2-x-x-x-2-x-x-x-2-x-x-|-x-2---2-2-11-|
E |-2---2-x-x-x-2-x-x-x-2-x-x-|-x-2-x-x-x-2-x-x-x-2-x-x-|-x-2---0-0>9--|

Refrain

Dernier couplet et fin :

    Bm                    Em    Bm                        Em    G                           Em  A                 F#m                Bm
e |-----2-x-x-2-x-------2-0-0-0---|-----2-x-x-2-x-------2-0-0-0---|-----3-x-x-3-x-----3-x-x-7-x---|-----5-x-x-5-x--------9--x-x-9--x---|
B |-----3-x-x-3-x-------3-0-0-0---|-----3-x-x-3-x-------3-0-0-0---|-----3-x-x-3-x-----3-x-x-8-x---|-----5-x-x-5-x--------10-x-x-10-x---|
G |-----4-x-x-4-x-------4-0-0-0---|-----4-x-x-4-x-------4-0-0-0---|-----4-x-x-4-x-----4-x-x-9-x---|-----6-x-x-6-x--------11-x-x-11-x---|
D |-2^4-4-x-x-4-x-2-2^4-4---2-2-2-|-2^4-4-x-x-4-x-2-2^4-4---2-2-3-|-3^5-5-x-x-5-x-3^5-5-x-x-9-x-5-|-5^7-7-x-x-7-x-9-9^11-11-x-x-11-x-2-|
A |-2---2-x-x-2-x-2-2---2---2-2-2-|-2---2-x-x-2-x-2-2---2---2-2-3-|-3^5-5-x-x-5-x-3^5-5-x-x-7-x-5-|-5^7-7-x-x-7-x-9-9----9--x-x-9--x-2-|
E |-2---2-x-x-2-x-2-2---2---0-0-2-|-2---2-x-x-2-x-2-2---2---0-0-3-|-3---3-x-x-3-x-3---3->->-7-<-5-|-5---5-x-x-5-x>9-9----9--x-x-9--x-2-|

Jouer 4 fois la ligne précédente


    Bm                                                      Bm
e |-----2-x-x-x-2-x-x-x-2-x-x-|-x-2-x-x-x-2-x-x-x-2-x-x-|-x-2-------------||
B |-----3-x-x-x-3-x-x-x-3-x-x-|-x-3-x-x-x-3-x-x-x-3-x-x-|-x-3-------------||
G |-----4-x-x-x-4-x-x-x-4-x-x-|-x-4-x-x-x-4-x-x-x-4-x-x-|-x-4-------------||
D |-2^4-4-x-x-x-4-x-x-x-4-x-x-|-x-4-x-x-x-4-x-x-x-4-x-x-|-x-4-------------||
A |-2---2-x-x-x-2-x-x-x-2-x-x-|-x-2-x-x-x-2-x-x-x-2-x-x-|-x-2-------------||
E |-2---2-x-x-x-2-x-x-x-2-x-x-|-x-2-x-x-x-2-x-x-x-2-x-x-|-x-2-------------||



Paroles

Avec le frangin, quand on est sur la route
En roulant on discute, on se raconte, on doute
Du chemin qu'il faut prendre, passant d'un sujet à l'autre
Et quand on donne son point de vu, c'est pas toujours le notre
Observant le décorum de nos institutions
Depuis le référundum sur la constitution
Du ni vu, ni connu, pour du classé sans suite
Est-ce qu'on a les élites qu'on mérite ?

Entre la BCE et la commission européenne
Est-ce qu'on peut sortir de tous ceux, qui ne vaut pas Le Pen
Si on est bien obligés d'avoir quelques technocrates
Est-ce qu'on est forcés de devenir social démocrate ?
Pour accuser l'Italie, le Portugal ou l'Espagne
Mettre à genoux la Grèce et encenser l'All'magne
Baisse du taux de natalité ou baisse des déficites
Est-ce qu'on a les élites qu'on mérite ?
J'hésite

Refrain :
Le GPS nous a perdu
On n'ira pas à droite c'est sûr
Faire demi-tour c'est sans issue
Et si on continu tout droit
On finira dans le mur
Le GPS nous a menti
Faut prendre encore à gauche c'est sûr
En marche arrière sens interdit
Et si on continu tout droit
On finira dans le mur
Le GPS nous a planté
Il faut qu'on passe au vert c'est sûr
Ca sert à rien de se garer
Et si on continu tout droit
On finira dans le mur
Dans le mur

Avec le frangin, quand on est sur la route
On roule on échange, surtout ce qu'on redoute
D'un livre ou d'un article, d'une vidéo à l'autre
Et quand on a l'esprit critique, c'est pas toujours le notre
Ce qui se vote à Bruxelle, se qui se passe à Strasbourg
Et ceux qui placent au Luxembourg
Quand nos prisons sont pleines de p'tits dileurs de chit
Est-ce qu'on a les élites qu'on mérite ?

De la robotisation au traité trans-atlantique
Sans transition écologique
Aux ordres du marché, de la City ou du Dax
De tous les dirigeants passés, placés par Goldman Sachs
Entre fausse démocratie et lobgyisme
Recherchant l'éthymologie du mot "socialisme"
Notre grand-père à fait 36, nos parents 68, et nous ?
Est-ce qu'on n'a pas fait ce qu'on mérite ?
J'hésite

Refrain.

On va pas s'faire avoir par les anti-Islam
Toutes les huiles sur le feu et les retour de flammes
Pour des fou du Djiade et autres anti-sémites
Et même si on a les élites qu'on mérite
On va pas d'faire avoir par les anti-migrants
Toutes les huiles sur le feu, et le retour au Franc
Pour des fou du Djiade et autres anti-sémites
Et même si on a les élites qu'on mérite
On va pas d'faire avoir par les anti-systèmes
Toutes les huiles sur le feu, discourt de tous les mêmes
Pour des fous du jihade et autres anti-sémites
Et même si on a les élites qu'on mérite