Tabsvolo.net - Tablature : L'expression


 Les tablatures : 68

Chanson française (2017)

Sans rire (2013)

C'est pas tout ça... (2010)

En attendant (2009)

Bref... Septembre 2008

  • Ma p'tite chanson
  • J'espère...
  • Bref

Jours heureux (2007)

Blancs Manteaux à Volo (2006)

Bien Zarbos (2004)

Tablature : L'expression

05-12-2010

Partager cette tablature

Télécharger la version imprimable




Ecouter un extrait composé de différentes parties de la tablature :



Légende :
||----|| (x2)
: Rejouer la partie bornée par des doubles barres.

Note : Bien écouter l'original pour les changements d'accords : il est fréquent qu'Olive passe par les cordes à vide juste avant de plaquer le nouvel accord...


Intro :

     Bm           Gadd9        Bm           Gadd9
e ||------------|------------|------------|------------||
B ||----3-----0-|----0-----0-|----3-----0-|----0-----0-||
G ||----4-----4-|----4-----4-|----4-----4-|----4-----4-|| (x2)
D ||-------4----|------------|-------4----|------------||
A ||-2----------|-------0----|-2----------|-------0----||
E ||------------|-3----------|------------|-3----------||

Couplets 1,2,3 :

    Bm           Gadd9        Bm           Gadd9        G            F#
e |------------|------------|------------|------------|------------|------------|
B |----3-----0-|----0-----0-|----3-----0-|----0-----0-|----3-----3-|----2-----2-|
G |----4-----4-|----4-----4-|----4-----4-|----4-----4-|----4-----4-|----3-----3-|
D |-------4----|------------|-------4----|------------|------------|------------|
A |-2----------|-------0----|-2----------|-------0----|-------5----|-------4----|
E |------------|-3----------|------------|-3----------|-3----------|-2----------|

    Em           G            Bm           Gadd9        Bm           Gadd9
e |------------|------------|------------|------------|------------|------------|
B |----0-----0-|----3-----3-|----3-----0-|----0-----0-|----3-----0-|----0-----0-|
G |----0-----0-|----4-----4-|----4-----4-|----4-----4-|----4-----4-|----4-----4-|
D |-------2----|------------|-------4----|------------|-------4----|------------|
A |------------|-------5----|-2----------|-------0----|-2----------|-------0----|
E |-0----------|-3----------|------------|-3----------|------------|-3----------|

    G            F#           Em           G            Em6          Em6
e |------------|------------|------------|------------|------------|------------|
B |----3-----3-|----2-----2-|----0-----0-|----3-----0-|----5-----5-|----5-----5-|
G |----4-----4-|----3-----3-|----0-----0-|----4-----0-|----4-----4-|----4-----4-|
D |------------|------------|-------2----|------------|-------5----|-------5----|
A |-------5----|-------4----|------------|-------0----|-4----------|-4----------|
E |-3----------|-2----------|-0----------|-3----------|------------|------------|

    Bm           Bm           G            G            F#           F#
e |------------|------------|------------|------------|------------|------------|
B |----3-----3-|----3-----3-|----0-----0-|----0-----0-|----2-----2-|----2-----2-|
G |----4-----4-|----4-----4-|----0-----0-|----0-----0-|----3-----3-|----3-----3-|
D |-------4----|-------4----|------------|-0----------|------------|-4----------|
A |-2----------|-2----------|-------2----|-------2----|-------4----|-------4----|
E |------------|------------|-3----------|------------|-2----------|------------|

Refrains 1,2,3,4 :

    D            Em           G            A#          D            Em
e |------------|------------|------------|-----------|------------|------------|
B |----7-----7-|----8-----8-|----3-----3-|----3----3-|----7-----7-|----8-----8-|
G |----7-----7-|----9-----9-|----4-----4-|----3----3-|----7-----7-|----9-----9-|
D |-------7----|-------9----|------------|-------3---|-------7----|-------9----|
A |-5----------|-7----------|-------5----|-1---------|-5----------|-7----------|
E |------------|------------|-3----------|-----------|------------|------------|

    G            G            F#           F#
e |------------|------------|------------|------------|
B |----0-----0-|----0-----0-|----2-----2-|----2-----2-|
G |----0-----0-|----0-----0-|----3-----3-|----3-----3-|
D |------------|-0----------|------------|-4----------|
A |-------2----|-------2----|-------4----|-------4----|
E |-3----------|------------|-2----------|------------|


     Bm           Gadd9        Bm           Gadd9
e ||------------|------------|------------|------------||
B ||----3-----0-|----0-----0-|----3-----0-|----0-----0-||
G ||----4-----4-|----4-----4-|----4-----4-|----4-----4-|| (x2)
D ||-------4----|------------|-------4----|------------||
A ||-2----------|-------0----|-2----------|-------0----||
E ||------------|-3----------|------------|-3----------||

Fin :

     Bm           Gadd9        Bm           Gadd9
e ||------------|------------|------------|------------||
B ||----3-----0-|----0-----0-|----3-----0-|----0-----0-||
G ||----4-----4-|----4-----4-|----4-----4-|----4-----4-|| (Ad lib)
D ||-------4----|------------|-------4----|------------||
A ||-2----------|-------0----|-2----------|-------0----||
E ||------------|-3----------|------------|-3----------||



Paroles

Si l'amour était un dessin, je serais une gomme
Si l'amour était un chemin, je ne serais pas Rome
Si l'amour n'avait pas d'pays, Je serais une frontière
Si l'amour n'avait pas de prix, j'aurais pris cher
Si l'amour faisait du tennis, je jouerais goal
Si l'amour rendait triste, je serais super drôle

{Refrain}
Si tu me passes l'expression : l'amour avec " A " majuscule
Est l'inconnue d'une équation dont j'ai pas l'sens de la formule

Si l'amour était un langage, je ne le parlerais pas
Si l'amour touchait le chômage, je serais en fin de droit
Si l'amour était un pare-feu, je serais un spam
Si l'amour avait des yeux, je serais une larme
Si l'amour était un navire, Je vogu'rais sur le Titanic
Si l'amour était un fakir, Je trouv'rais que ça pique

Si tu me passes l'expression : l'amour avec " A " majuscule
Est l'inconnue d'une équation dont j'ai pas l'sens de la formule

Si l'amour était Euclidien, je manquerais de dimension
Si l'amour n'avait aucun parfum, je sentirais bon
Si l'amour était un chiffre impair, je choisirais quatre
Si l'amour était bolchévique et révolutionnaire, je s'rais marin Kronstadt
Si l'amour rendait crétin, je s'rais loin d'être idiot
Si l'amour chantait bien, je chanterais faux

Si tu me passes l'expression : l'amour avec " A " majuscule
Est l'inconnue d'une équation dont j'ai pas l'sens de la formule

Si tu me passes l'expression : l'amour avec " A " majuscule
Est l'inconnue d'une équation dont j'ai pas l'sens de la formule