Tabsvolo.net - Tablature : C'est pas tout ça


 Les tablatures : 68

Chanson française (2017)

Sans rire (2013)

C'est pas tout ça... (2010)

En attendant (2009)

Bref... Septembre 2008

  • Ma p'tite chanson
  • J'espère...
  • Bref

Jours heureux (2007)

Blancs Manteaux à Volo (2006)

Bien Zarbos (2004)

Tablature : C'est pas tout ça

03-02-2013

Partager cette tablature

Télécharger la version imprimable




Ecouter un extrait composé de différentes parties de la tablature :



Légende :
||------|| (xN) : Jouer N fois la partie entre les ||
                 x : Corde jouée étouffée


Intro :

     B               D#m               EM7  EM13 EM7     F#
e ||---------7-7-7-|------6----6-6-6-|------9----7-7-7-|------2--2-2-2-|
B ||---------7-7-7-|------7----7-7-7-|------9----9-9-9-|------2--2-2-2-|
G ||---------8-8-8-|------8----8-8-8-|------8----8-8-8-|------3--3-3-3-|
D ||---------9-9-9-|------8----8-8-8-|---9--9----9-9-9-|---4--4--4-4-4-|
A ||-9-9--9--9-9-9-|-6-6--6----6-6-6-|-7-7--7----7-7-7-|-4-4--4--4-4-4-|
E ||-7-7--7--7-7-7-|-6-6--6----6-6-6-|-7-7--7----7-7-7-|-2-2--2--2-2-2-|

    B               D#m               EM7  EM13 EM7     F#
e |---------7-7-7-|------6----6-6-6-|------9----7-7-7-|----------------|-------------2-2-|
B |---------7-7-7-|------7----7-7-7-|------9----9-9-9-|----------------|-------------2-2-|
G |---------8-8-8-|------8----8-8-8-|------8----8-8-8-|----------------|-------------3-3-|
D |---------9-9-9-|------8----8-8-8-|------9----9-9-9-|----------------|-------------4-4-|
A |-9-9--9--9-9-9-|-6-6--6----6-6-6-|-7-7--7----7-7-7-|-4-4--------4---|----4--------4-4-|
E |-7-7--7--7-7-7-|-6-6--6----6-6-6-|-7-7--7----7-7-7-|-2-2--------2---|----2--------2-2-|

Couplet 1,2 et 3 :

    G               B               D#m             EM7     EM13
e |---------3-3-x-|---------7-7-x-|---------6-6-x-|---------9-9-x-|
B |---------3-3-x-|---------7-7-x-|---------7-7-x-|---------9-9-x-|
G |---------4-4-x-|---------8-8-x-|---------8-8-x-|---------8-8-x-|
D |---------5-5-x-|---------9-9-x-|---------8-8-x-|---------9-9-x-|
A |-5-5--5--5-5-x-|-9-9--9--9-9-x-|-6-6--6--6-6-x-|-7-7--7--7-7-x-|
E |-3-3--3--3-3-x-|-7-7--7--7-7-x-|-6-6--6--6-6-x-|-7-7--7--7-7-x-|

    G               B               Am              F#
e |---------3-3-x-|---------7-7-x-|---------0-0-x-|---------2-2-x-|
B |---------3-3-x-|---------7-7-x-|---------0-0-x-|---------2-2-x-|
G |---------4-4-x-|---------8-8-x-|---------1-1-x-|---------3-3-x-|
D |---------5-5-x-|---------9-9-x-|---------2-2-x-|---------4-4-x-|
A |-5-5--5--5-5-x-|-9-9--9--9-9-x-|-2-2--2--2-2-x-|-4-4--4--4-4-x-|
E |-3-3--3--3-3-x-|-7-7--7--7-7-x-|-0-0--0--0-0-x-|-2-2--2--2-4-x-|

    G               B               D#m             EM7     EM13
e |---------3-3-x-|---------7-7-x-|---------6-6-x-|---------9-9-x-|
B |---------3-3-x-|---------7-7-x-|---------7-7-x-|---------9-9-x-|
G |---------4-4-x-|---------8-8-x-|---------8-8-x-|---------8-8-x-|
D |---------5-5-x-|---------9-9-x-|---------8-8-x-|---------9-9-x-|
A |-5-5--5--5-5-x-|-9-9--9--9-9-x-|-6-6--6--6-6-x-|-7-7--7--7-7-x-|
E |-3-3--3--3-3-x-|-7-7--7--7-7-x-|-6-6--6--6-6-x-|-7-7--7--7-7-x-|

    G               B               Am              F#
e |---------3-3-x-|---------7-7-x-|---------0-0-x-|-----2---2-2-2-----2-2-x-|
B |---------3-3-x-|---------7-7-x-|---------0-0-x-|-----2---2-2-2-----2-2-x-|
G |---------4-4-x-|---------8-8-x-|---------1-1-x-|-----3---3-3-3-----3-3-x-|
D |---------5-5-x-|---------9-9-x-|---------2-2-x-|-----4---4-4-4-----4-4-x-|
A |-5-5--5--5-5-x-|-9-9--9--9-9-x-|-2-2--2--2-2-x-|-4-4-4---4-4-4-4---4-4-x-|
E |-3-3--3--3-3-x-|-7-7--7--7-7-x-|-0-0--0--0-0-x-|-2-2-2---2-2-2-2---2-2-x-|

Refrain 1 :

     B               D#m               EM7  EM13 EM7     F#
e ||---------7-7-7-|------6----6-6-6-|------9----7-7-7-|------2--2-2-2-||
B ||---------7-7-7-|------7----7-7-7-|------9----9-9-9-|------2--2-2-2-||
G ||---------8-8-8-|------8----8-8-8-|------8----8-8-8-|------3--3-3-3-|| (x2)
D ||---------9-9-9-|------8----8-8-8-|---9--9----9-9-9-|---4--4--4-4-4-||
A ||-9-9--9--9-9-9-|-6-6--6----6-6-6-|-7-7--7----7-7-7-|-4-4--4--4-4-4-||
E ||-7-7--7--7-7-7-|-6-6--6----6-6-6-|-7-7--7----7-7-7-|-2-2--2--2-2-2-||

Refrain 2 :

    B               D#m               EM7  EM13 EM7     F#
e |---------7-7-7-|------6----6-6-6-|------9----7-7-7-|------2--2-2-2-|
B |---------7-7-7-|------7----7-7-7-|------9----9-9-9-|------2--2-2-2-|
G |---------8-8-8-|------8----8-8-8-|------8----8-8-8-|------3--3-3-3-|
D |---------9-9-9-|------8----8-8-8-|---9--9----9-9-9-|---4--4--4-4-4-|
A |-9-9--9--9-9-9-|-6-6--6----6-6-6-|-7-7--7----7-7-7-|-4-4--4--4-4-4-|
E |-7-7--7--7-7-7-|-6-6--6----6-6-6-|-7-7--7----7-7-7-|-2-2--2--2-2-2-|

    B               D#m               EM7  EM13 EM7     F#
e |---------7-7-7-|------6----6-6-6-|------9----7-7-7-|-2-2-2-2-2-2-2-|
B |---------7-7-7-|------7----7-7-7-|------9----9-9-9-|-2-2-2-2-2-2-2-|
G |---------8-8-8-|------8----8-8-8-|------8----8-8-8-|-3-3-3-3-3-3-3-|
D |---------9-9-9-|------8----8-8-8-|---9--9----9-9-9-|-4-4-4-4-4-4-4-|
A |-9-9--9--9-9-9-|-6-6--6----6-6-6-|-7-7--7----7-7-7-|-4-4-4-4-4-4-4-|
E |-7-7--7--7-7-7-|-6-6--6----6-6-6-|-7-7--7----7-7-7-|-2-2-2-2-2-2-2-|

Refrain 3 :

    B               D#m               EM7  EM13 EM7     F#
e |---------7-7-7-|------6----6-6-6-|------9----7-7-7-|------2--2-2-2-|
B |---------7-7-7-|------7----7-7-7-|------9----9-9-9-|------2--2-2-2-|
G |---------8-8-8-|------8----8-8-8-|------8----8-8-8-|------3--3-3-3-|
D |---------9-9-9-|------8----8-8-8-|---9--9----9-9-9-|---4--4--4-4-4-|
A |-9-9--9--9-9-9-|-6-6--6----6-6-6-|-7-7--7----7-7-7-|-4-4--4--4-4-4-|
E |-7-7--7--7-7-7-|-6-6--6----6-6-6-|-7-7--7----7-7-7-|-2-2--2--2-2-2-|

    B               D#m               EM7  EM13 EM7     F#                  F#
e |---------7-7-7-|------6----6-6-6-|------9----7-7-7-|------------2---|----2--------2-2-|
B |---------7-7-7-|------7----7-7-7-|------9----9-9-9-|------------2---|----2--------2-2-|
G |---------8-8-8-|------8----8-8-8-|------8----8-8-8-|------------3---|----3--------3-3-|
D |---------9-9-9-|------8----8-8-8-|------9----9-9-9-|------------4---|----4--------4-4-|
A |-9-9--9--9-9-9-|-6-6--6----6-6-6-|-7-7--7----7-7-7-|-4-4--------4---|----4--------4-4-|
E |-7-7--7--7-7-7-|-6-6--6----6-6-6-|-7-7--7----7-7-7-|-2-2--------2---|----2--------2-2-|

Couplet 4 et fin :

    G               B               D#m             EM7     EM13
e |---------3-3-x-|---------7-7-x-|---------6-6-x-|---------9-9-x-|
B |---------3-3-x-|---------7-7-x-|---------7-7-x-|---------9-9-x-|
G |---------4-4-x-|---------8-8-x-|---------8-8-x-|---------8-8-x-|
D |---------5-5-x-|---------9-9-x-|---------8-8-x-|---------9-9-x-|
A |-5-------5-5-x-|-9-------9-9-x-|-6-------6-6-x-|-7-------7-7-x-|
E |-3-3--3--3-3-x-|-7-7--7--7-7-x-|-6-6--6--6-6-x-|-7-7--7--7-7-x-|

    G               B               Am              F#
e |---------3-3-x-|---------7-7-x-|---------------|---------2-2-x-|
B |---------3-3-x-|---------7-7-x-|---------0-----|---------2-2-x-|
G |---------4-4-x-|---------8-8-x-|---------1-----|---------3-3-x-|
D |---------5-5-x-|---------9-9-x-|---------2-----|---------4-4-x-|
A |-5-------5-5-x-|-9-------9-9-x-|-2-------------|-4-------4-4-x-|
E |-3-3--3--3-3-x-|-7-7--7--7-7-x-|-0-0---------0-|-2-2--2--2-4-x-|

    G                   B               D#m                 EM7     EM13
e |-------------------|---7-----------|------6------6-6-x-|---------9-9-x-|
B |-------------------|---7-----------|-----7-------7-7-x-|---------9-9-x-|
G |-------------------|---8-----------|----8--------8-8-x-|---------8-8-x-|
D |---5-5-5-5-5-5-5-5-|---9-----------|---8---------8-8-x-|---------9-9-x-|
A |-5-5-5-5-5-5-5-5-5-|-9-9-----------|--6----------6-6-x-|-7-------7-7-x-|
E |-3-3-3-3-3-3-3-3-3-|-7-7-----------|-6--------6--6-6-x-|-7-7--7--7-7-x-|

    G               B               Am              F#                 B
e |---------3-3-x-|---------7-7-x-|---------------|---------2-2-2---|-------------||
B |---------3-3-x-|---------7-7-x-|----------0----|---------2-2-2---|--7----------||
G |---------4-4-x-|---------8-8-x-|----------1----|---------3-3-3---|--8----------||
D |---------5-5-x-|---------9-9-x-|----------2----|---------4-4-4---|--9----------||
A |-5-------5-5-x-|-9-------9-9-x-|-2-------------|-4-------4-4-4---|--9----------||
E |-3-3--3--3-3-x-|-7-7--7--7-7-x-|-0-0---------0-|-2-2-----2-2-2---|-------------||



Paroles

D'abord elle est intelligente
En plus, elle est vraiment marrante
Mignonne un peu trop midinette
Mais là ce soir elle est parfaite
On s'est causé sans faire exprès
Maint'nant on s'parle de très très près
Assis sur un petit banc en pierre
On est tout seul on boit d'la bière
Elle commence à rouler un joint
C'est cool, moi je louche sur ses seins
Et quand elle relève la tête
J'espère qu'elle croit qu'j'regarde son pète
J'ai perdu le fil de son histoire
Je suis bourré il fait nuit noir
Mais comme elle finit par c'est dur
J'réponds un truc du style "c'est sûr"

C'est pas tout ça mais quand est-ce qu'on baise
C'est pas tout ça mais quand est-ce qu'on baise

C'est vrai je sais qu'elle a un mec
Qu'est DJ dans une discothèque
Le genre de gars qui doit s'retenir
Mais ça je me retiens d'lui dire
Je la laisse me faire son discours
Sur la fidélité l'amour
Et la confiance et l'honnêt'té
Bien sûr, elle l'a jamais trompé
J'contredis pas je suis d'accord
Mais moi là j'ai envie d'son corps
Ca fait deux trois heures qu'on discute
Y'a pas d'autres mot je suis en rut
J'insiste un peu, elle m'avoue
Qu'elle me trouve aussi a son goût
Qu'elle a besoin d'se réchauffer
Elle me propose de m'rapprocher... (OK !)

C'est pas tout ça mais quand est-ce qu'on baise
C'est pas tout ça mais quand est-ce qu'on baise

Je l'attendait cette réplique
Et maint'nant c'est moi qui m'explique
Je suis en amour, j'parle de ma femme
Qui m'attend chez nous à Paname
J'suis sûrement con, p't'être un salaud
J'm'improvise des phrases de philo
On n'a qu'une vie ! Et j'ai envie !
Et à c't'heure là j'ai plus d'avis !
Je suis coincé, voilà c'est dit
J'ai plus la notion d'l'interdit
Et la picole, et le chichon
Et son p'tit cul ses gros nichons
Et demain je me trait'rai d'connard
Mais demain c'est tell'ment plus tard
Besoin de vivre dans l'instant
Et là maint'nant c'est l'bon moment

C'est pas tout ça mais quand est-ce qu'on baise
C'est pas tout ça mais quand est-ce qu'on baise

On a fini par se laisser
Devant un beau lever d'soleil
Elle a essayé d'm'embrasser
Et pour le coup c'est moi qu'avait sommeil...
Il faut que j'retienne son prénom
On est peut-être am'ner a s'revoir
J'suis bien content qu'elle ait dit non
Il est peut-être temps qu'j'arrête de boire...