Tabsvolo.net - Tablature : L'amoureux


 Les tablatures : 68

Chanson française (2017)

Sans rire (2013)

C'est pas tout ça... (2010)

En attendant (2009)

Bref... Septembre 2008

  • Ma p'tite chanson
  • J'espère...
  • Bref

Jours heureux (2007)

Blancs Manteaux à Volo (2006)

Bien Zarbos (2004)

Tablature : L'amoureux

03-02-2013

Partager cette tablature

Télécharger la version imprimable 


Ecouter un extrait composé de différentes parties de la tablature :



Légende :
||------|| (xN) : Jouer N fois la partie entre les ||
     Bm (Am) : Nom de l'accord (Nom de l'accord par rapport au capo)

Aide et conseils :
La basse au pouce, et l'index qui fait des aller-retours sur les cordes "tout simplement" à la Olivier ;)

Capo 2

Intro :

     Bm (Am)
e ||----0-0--0----0-|----0-0--0----0-|----0-0--0----0-|----0-0--0----0-||
B ||----1-1--1----1-|----1-1--1----1-|----1-1--1----1-|----1-1--1----1-||
G ||----2-2--2----2-|----2-2--2----2-|----2-2--2----2-|----2-2--2----2-|| (x4)
D ||-----------2----|-----------2----|-----------2----|-----------2----||
A ||-0--------------|-0--------------|-0--------------|-0--------------||
E ||----------------|----------------|----------------|----------------||

Couplets :

     Bm (Am)
e ||----0-0--0----0-|----0-0--0----0-|----0-0--0----0-|----0-0--0----0-|
B ||----1-1--1----1-|----1-1--1----1-|----1-1--1----1-|----1-1--1----1-|
G ||----2-2--2----2-|----2-2--2----2-|----2-2--2----2-|----2-2--2----0-|
D ||-----------2----|-----------2----|-----------2----|-----------2----|
A ||-0--------------|-0--------------|-0--------------|-0--------------|
E ||----------------|----------------|----------------|----------------|

    D (C)
e |----0-0--0----0-|----0-0--0----0-|----0-0--0----0-|----0-0--0----0-|
B |----1-1--1----1-|----1-1--1----1-|----1-1--1----1-|----1-1--1----1-|
G |----0-0--0----0-|----0-0--0----0-|----0-0--0----0-|----0-0--0----0-|
D |-----------2----|-----------2----|-----------2----|-----------2----|
A |-3--------------|-3--------------|-3--------------|-3--------------|
E |----------------|----------------|----------------|----------------|

    G7 (F7)          Bm6 (Am6)        G7 (F7)          D sus4 (C sus4)
e |----0-0--0----0-|----0-0--0----0-|----0-0--0----0-|----0-0--0----0-|
B |----1-1--1----1-|----1-1--1----1-|----1-1--1----1-|----1-1--1----1-|
G |----2-2--2----2-|----2-2--2----2-|----2-2--2----2-|-0--0-0--0-0--0-|
D |-3---------3----|-4---------4----|-3---------3----|----------------|
A |----------------|----------------|----------------|----------------|
E |----------------|----------------|----------------|----------------|

    D (C)                             F#7 (E7)
e |----0-0--0----0-|----0-0--0----0-|----0-0--0----0-|----0-0--0----0-||
B |----1-1--1----1-|----1-1--1----0-|----0-0--0----0-|----0-0--0----0-||
G |----0-0--0----0-|----0-0--0----0-|----1-1--1----1-|----1-1--1----0-|| (x2)
D |-----------2----|-----------2----|-----------0----|-----------0----||
A |-3--------------|-3--------------|-2--------------|-2--------------||
E |----------------|----------------|----------------|----------------||

Refrains : (deuxième refrain : x2) (troisième refrain x3)

    G7 (F7)
e |----0-0--0----0-|----0-0--0----0-|----0-0--0----0-|----0-0--0----0-|
B |----1-1--1----1-|----1-1--1----1-|----1-1--1----1-|----1-1--1----1-|
G |----2-2--2----2-|----2-2--2----2-|----2-2--2----2-|----2-2--2----2-|
D |-3---------3----|-3---------3----|-3---------3----|-3---------3----|
A |----------------|----------------|----------------|----------------|
E |----------------|----------------|----------------|----------------|

    D (C)                             F#7 (E7)
e |----0-0--0----0-|----0-0--0----0-|----0-0--0----0-|----0-0--0----0-|
B |----1-1--1----1-|----1-1--1----0-|----0-0--0----0-|----0-0--0----0-|
G |----0-0--0----0-|----0-0--0----0-|----1-1--1----1-|----1-1--1----0-|
D |-----------2----|-----------2----|-----------0----|-----------0----|
A |-3--------------|-3--------------|-2--------------|-2--------------|
E |----------------|----------------|----------------|----------------|

    G (F)                             D (C)            A (G)
e |----1-1--1----1-|----1-1--1----0-|----0-0--0----0-|----3-3--3----0-|
B |----1-1--1----1-|----1-1--1----1-|----1-1--1----0-|----0-0--0----0-|
G |----2-2--2----2-|----2-2--2----0-|----0-0--0----0-|----0-0--0----0-|
D |-----------3----|-----------3----|-----------2----|-----------0----|
A |----------------|----------------|-3--------------|----------------|
E |-1--------------|-1--------------|----------------|-3--------------|

    Bm (Am)
e |----0-0--0----0-|----0-0--0----0-|----0-0--0----0-|----0-0--0----0-|
B |----1-1--1----1-|----1-1--1----1-|----1-1--1----1-|----1-1--1----1-|
G |----2-2--2----2-|----2-2--2----2-|----2-2--2----2-|----2-2--2----2-|
D |-----------2----|-----------2----|-----------2----|-----------2----|
A |-0--------------|-0--------------|-0--------------|-0--------------|
E |----------------|----------------|----------------|----------------|

Fin : (en ralentissant...)

    Bm (Am)
e |----0-0--0----0-|----0-0--0----0-|----0-0--0----0-|---------0------||
B |----1-1--1----1-|----1-1--1----1-|----1-1--1----1-|-------1--------||
G |----2-2--2----2-|----2-2--2----2-|----2-2--2----2-|-----2----------||
D |-----------2----|-----------2----|-----------2----|---2------------||
A |-0--------------|-0--------------|-0--------------|-0--------------||
E |----------------|----------------|----------------|----------------||



Paroles

Je suis l'heureux vaincu
l'aveu, pas la faiblesse
Je ne suis pas une vertu
le comble de la tendresse
je ne suis ni vrai ni faux
compris dans la question
je t'aime en un mot
je suis une affirmation
je suis le tout, pas la partie
l'impossible en partage
la réponse qui demande oui
je suis le maître du chantage
je suis pour l'autre sans apostrophe
l'étreinte dans le gèste
Et, tout l'art de la catastrophe
je suis celui qui reste

je suis le moins habile
je suis le plus idiot
le moins chanceux
je suis le plus fragile
celui qui est de trop
l'amoureux

je suis ce qui n'en finit pas de finir
l'avenir des regrets
le choix de ne pas choisir
toujours risquant jamais
je suis l'obscène dans l'inconv'nant
L'orgueil d'aucun espoir
la fatigue de l'épuisement
le deuil du verbe avoir
je suis une contradiction
envers et contre tout
sans aucune proportion
mais je suis loin d'etre fou
je suis l'abandon de l'absence
l'adulte encore enfant
la patience d'une impatience
je suis celui qui attend

je suis le moins habile
je suis le plus idiot
le moins chanceux
je suis le plus fragile
celui qui est de trop
l'amoureux

je suis personne à qui parler
je ne suis pas l'indépendant
le refus d'etre sauvé
et tout le tremblement
je suis renaitre sans mourir
l'avide dans le besoin
le meilleur craignant le pire
l'un peu du moins que rien
je suis je t'aime, parce que je t'aime
l'oubli qu'on doit survivre
je suis le vide de moi même
l'exemple à ne pas suivre
je suis mesquin et narcissique
un masque de discretion
je ne suis pas héroique
je suis celui qui dit "recommençons"

je suis le moins habile je suis le plus idiot
le moins chanceux
je suis le plus fragile
celui qui est de trop
l'amoureux

je suis le moins habile
je suis le plus idiot
le moins chanceux
je suis le plus fragile
celui qui est de trop
l'amoureux