Tabsvolo.net - Tablature : Succédané


 Les tablatures : 68

Chanson française (2017)

Sans rire (2013)

C'est pas tout ça... (2010)

En attendant (2009)

Bref... Septembre 2008

  • Ma p'tite chanson
  • J'espère...
  • Bref

Jours heureux (2007)

Blancs Manteaux à Volo (2006)

Bien Zarbos (2004)

Tablature : Succédané

Télécharger la version imprimable




Ecouter un extrait composé de différentes parties de la tablature :


Légende :
^ : Pull-off ou Pull-on

Intro, couplet, refrain :

     Am      A sus2    F6      A sus2    C              G          G7          Am
e ||---------------0-|---------------0-|----------------3--|-------1----------|--------...
B ||-------1-----0---|-------1-----0---|-------1-----0-(0)-|------(0)-------0^|1-----1-...
G ||-----2-----2-----|-----2-----2-----|-----0-----0-------|------------------|----2---...
D ||---2-----2-------|---0-----2-------|---2-----2---------|-----0--------0---|--2-----...
A ||-0---------------|-----------------|-3-----------------|---2--------2-----|0-------...
E ||-----------------|-1---------------|-------------------|-3--------3-------|--------...


Fin du second complet :


    Am      A sus2    F6      A sus2    C                   G        G
e |---------------0-|---------------0-|----------------0--|------------------|
B |-------1-----0---|-------1-----0---|-------1-----1-----|------------------|
G |-----2-----2-----|-----2-----2-----|-----0-----0-------|------------------|
D |---2-----2-------|---0-----2-------|---2-----2---------|------------------|
A |-0---------------|-----------------|-3-----------------|------------------|
E |-----------------|-1---------------|-------------------|-3--------3-------|


Fin du troisième complet :


    Am      A sus2    F6      A sus2    C                   G        G7
e |---------------0-|---------------0-|----------------3--|----------1-------|
B |-------1-----0---|-------1-----0---|-------1-----0-(0)-|----------0-------|
G |-----2-----2-----|-----2-----2-----|-----0-----0-------|------------------|
D |---2-----2-------|---0-----2-------|---2-----2---------|------------------|
A |-0---------------|-----------------|-3-----------------|------------------|
E |-----------------|-1---------------|-------------------|-3--------3-------|


Début du dernier couplet :


    Am                F6                C                 G7
e |---------0-------|---------0-------|---------0-------|---------1-------|
B |---------1-------|---------1-------|---------1-------|---------0-------|
G |---------2-------|---------2-------|---------0-------|---------0-------|
D |-----------------|-----------------|-----------------|-----------------|
A |-0---------------|-----------------|-3---------------|-----------------|
E |-----------------|-1---------------|-----------------|-3---------------|

    Am                F6                C                 G     G7          Am
e |---------0-------|---------0-------|---------0-------|-------1----------|--------...
B |---------1-------|---------1-------|---------1-------|------(0)-------0^|1-----1-...
G |---------2-------|---------2-------|---------0-------|------------------|----2---...
D |-----------------|-----------------|-----------------|-----0--------0---|--2-----...
A |-0---------------|-----------------|-3---------------|---2--------2-----|0-------...
E |-----------------|-1---------------|-----------------|-3--------3-------|--------...

Fin :


    Am      A sus2    F6      A sus2    C              G
e |---------------0-|---------------0-|----------------3--|
B |-------1-----0---|-------1-----0---|-------1-----0-(0)-|
G |-----2-----2-----|-----2-----2-----|-----0-----0-------|
D |---2-----2-------|---0-----2-------|---2-----2---------|
A |-0---------------|-----------------|-3-----------------|
E |-----------------|-1---------------|-------------------|

          G7          Am
e |-------1----------|----------------0-||
B |------(0)-------0^|1-----------1-----||
G |------------------|--------2---------||
D |-----0--------0---|----2---2---------||
A |---2--------2-----|0-----------------||
E |-3--------3-------|------------------||


Paroles


Je suis sans profondeur, à peine l'effet d'une cause
Étendu plein de langueur, en n'en attendant pas grand-chose
Et je ne peux rien y changer, quand je suis dans cet état
D'un esprit momentané, privé du souvenir de toi

Comme je suis sentimental, pour ne pas dire suranné
J'ai encore pas mal de mal, avec mon succédané
Et je fuis l'inopiné, sans opinion faute de joie
D'un esprit momentané, privé du souvenir de toi

Et je dois bien m'accoutumer, d'une impatience qui n'attend rien
De qualité surqualifiée, à peu de fin vu mes moyens
Quand je ne suis nécessité, par rien d'autre que les choix
D'un esprit momentané, privé du souvenir de toi

Aujourd'hui, et peu m'importe, je ne ferai rien de bien
Et il n'y a rien qui ne m'exhorte, à ne pas faire pareil demain
N'ayant plus de spontané, autant qu'il peut l'être parfois
Qu'un esprit momentané, privé du souvenir de toi