Tabsvolo.net - Tablature : L'air d'un con


 Les tablatures : 68

Chanson française (2017)

Sans rire (2013)

C'est pas tout ça... (2010)

En attendant (2009)

Bref... Septembre 2008

  • Ma p'tite chanson
  • J'espère...
  • Bref

Jours heureux (2007)

Blancs Manteaux à Volo (2006)

Bien Zarbos (2004)

Tablature : L'air d'un con

21-09-2013

Partager cette tablature

Télécharger la version imprimable 


Ecouter un extrait composé de différentes parties de la tablature :



Légende :
||------|| (xN) : Jouer N fois la partie entre les ||
          C (G) : Nom de l'accord (Nom de l'accord par rapport au capo)


Capo 5

Intro :

     C (G)       Dm (Am)     F (C)       Am (Em)
e ||-----------|-----------|-----------|-----------|
B ||------0----|------1----|------1----|------0----|
G ||------0----|------2----|------0----|------0----|
D ||-----------|-----------|-----------|-----------|
A ||-----------|-0---------|-3---------|-----------|
E ||-3---------|-----------|-----------|-0---------|

Début (1er refrain) :

    C (G)       Dm (Am)     F (C)       Am (Em)
e |-----------|-----------|-----------|-----------|
B |------0----|------1----|------1----|------0----|
G |------0----|------2----|------0----|------0----|
D |-----------|-----------|-----------|-----------|
A |-----------|-0---------|-3---------|----------0|
E |-3---------|-----------|-----------|-0---------|

    C (G)       Dm (Am)     F (C)       Am (Em)
e |-----------|-----------|-----------|------------|
B |------0----|------1----|------1----|----0-----0-|
G |------0----|------2----|------0----|----0-----0-|
D |-----------|-----------|-----------|------------|
A |-----------|-0---------|-3---------|-------2----|
E |-3---------|-----------|-----------|-0----------|

Couplets :

     Am (Em)      F (C)        Dm (Am)      Am (Em)
e ||------------|------------|------------|------------||
B ||----0-----0-|----1-----1-|----1-----1-|----0-----0-||
G ||----0-----0-|----0-----0-|----2-----2-|----0-----0-|| (x6)
D ||------------|-------2----|-------2----|------------||
A ||-------2----|-3----------|-0----------|-------2----||
E ||-0----------|------------|------------|-0----------||

Refrains :

     C (G)        Dm (Am)      F (C)        Am (Em)
e ||------------|------------|------------|------------||
B ||----0-----0-|----1-----1-|----1-----1-|----0-----0-||
G ||----0-----0-|----2-----2-|----0-----0-|----0-----0-|| (x2)
D ||------------|-------2----|-------2----|------------||
A ||-------2----|-0----------|-3----------|-------2----||
E ||-3----------|------------|------------|-0----------||

Fin :

     Am (Em)      F (C)        Dm (Am)      Am (Em)
e ||------------|------------|------------|------------||
B ||----0-----0-|----1-----1-|----1-----1-|----0-----0-||
G ||----0-----0-|----0-----0-|----2-----2-|----0-----0-|| (x2)
D ||------------|-------2----|-------2----|------------||
A ||-------2----|-3----------|-0----------|-------2----||
E ||-0----------|------------|------------|-0----------||

    Am (Em)
e |-------------||
B |-------------||
G |-------------||
D |-------------||
A |-------------||
E |-0-----------||



Paroles

Assis tout seul sur mon bal'con
Les potes sont partit l'air d'un con
J'ai bien discuté j'ai bien bu
Pas trop la preuve je continue
Si j'en profite un peu en vrac
Comme j'suis pété je vide mon sac
Pour ma fin d'soirée pas marrante
Premier degré j'écris je chante

Au vue de ce qui m'intéresse
Surtout le partage des richesses
Des notes de lecture plein la tête
Sur le pourquoi du comment d'la dette
Du taux de croissance nominal
J'vois pas l'intérêt général
De l'opacité d'un système
Où les banques se contrôlent elles-mêmes
Tout en conséquence sociale
En concurrence déloyale
Des équations mathématiques
Indicateurs et statistiques
Du plus de marge moins de manoeuvre
Surtout du coup de la main d'oeuvre
Puisqu'il faudra bien que jeunesse se fasse
Dans le chômage de masse
Comme indigné du monde entier
Devant les marchés financiers
Depuis le temps que ça existe
Plus fort que l'modèle communiste
Un bout du monde des affaires
C'est pas que du secret bancaire
Même si quand même dans ce cas-là
La mafia pendant ce temps-là...

Assis tout seul sur mon bal'con
Les potes sont partit l'air d'un con
J'ai bien discuté j'ai bien bu
Pas trop la preuve je continue
Si j'en profite un peu en vrac
Comme j'suis pété je vide mon sac
Pour ma fin d'soirée pas marrante
Premier degré j'écris je chante

Comme c'est le baril de pétrole
Ou le niveau de l'euro doll'
De la création monétaire
Sur les marchés obligataires
Des chambres de compensation
Du niveau de la corruption
Et de la croissance éternelle
Quand est-ce qu'on va changer d'modèle
Des politiques d'austérité
Dessous du seuil de pauvreté
Trafic de drogue et recèle
D'une économie parallèle
Surpopulation carcérale
J'vois pas l'intérêt général
C'est eux qu'en r'demandent
C'est eux qu'en veulent
Ils savent pas rester pauvres
Et fermer leur gueule
Comme de toute façon c'est mondial
Tout en échange commercial
Au rythme des publications
De trois agences de notation
Si c'est la pollution de l'air
C'est pas que gaz à effet d'serre
Même si quand même dans ce cas-là
Le climat pendant ce temps-là...

Assis tout seul sur mon bal'con
Les potes sont partit l'air d'un con
J'ai bien discuté j'ai bien bu
Pas trop la preuve je continue
Si j'en profite un peu en vrac
Comme j'suis pété je vide mon sac
Pour ma fin d'soirée pas marrante
Premier degré j'écris je chante

Puisque le risque est systémique
Pas loin des crises énergétiques
Toujours en exode fiscale
Y'a pas d'intérêt général
Et si l'effet est domino
Ou l'implosion d'la zone Euro
Qu'est-c'qu'on attend pour fout' la merde
J'vois pas vraiment c'qu'on a à perdre
Puisqu'ils nous en font tout un monde
Qui fonctionne en nanosecondes
Culbutes et trading en haute fréquence
Putes et jetons de présence
Je porte un toast aux droits de l'homme
Et je lève mon verre à gazprom
Même si le pire est à venir
Quand viendra la chute de l'empire
Si c'est la guerre des monnaies
Ou des réunions au sommet
Pour des nouvelles baisses de salaire
Suppression du nombre de postes de fonctionnaires
Menace et défaut de paiement
Angoisse du vote au parlement
Même si quand même dans ce cas-là
La Troïka pendant ce temps-là...

A l'heure où j'écris cette chanson
Les potes sont partit pour de bon
J'ai bien picolé j'me suis r'lu
Pas trop la preuve je continue
Si j'en profite un peu en vrac
Comme j'suis pété je vide mon sac
Pour ma fin d'soirée pas marrante
Premier degré j'écris je chante