Tabsvolo.net - Tablature : Tu connais


 Les tablatures : 68

Chanson française (2017)

Sans rire (2013)

C'est pas tout ça... (2010)

En attendant (2009)

Bref... Septembre 2008

  • Ma p'tite chanson
  • J'espère...
  • Bref

Jours heureux (2007)

Blancs Manteaux à Volo (2006)

Bien Zarbos (2004)

Rev. 02 | 23-05-2010

Partager cette tablature

Télécharger la version imprimable




Ecouter un extrait composé de différentes parties de la tablature :


Intro :

     Am            Dm6 Add9      C             Dm      Em
e ||-------0---0-|-------0---0-|-------0---0-|---1---1-----|
B ||---1-----1---|---3-----3---|---1-----1---|-----3-----0-|
G ||-----2-------|-----2-------|-----0-------|-------------|
D ||-------------|-------------|-------------|-0-----------|
A ||-0-----------|-2-----------|-3-----------|-------------|
E ||-------------|-------------|-------------|---------0---|

    Am            Dm6 Add9      C             Dm      Em
e |-------0---0-|-------0---0-|-------0---0-|---1---1-----|
B |---1-----1---|---3-----3---|---1-----1---|-----3-----0-|
G |-----2-------|-----2-------|-----0-------|-------------|
D |-------------|-------------|-------------|-0-------2---|
A |-0-----------|-2-----------|-3-----------|-------------|
E |-------------|-------------|-------------|-------------|

Couplets :


     Am            Dm6 Add9      C             Dm      Em
e ||-------0---0-|-------0---0-|-------0---0-|---1---1-----||
B ||---1-----1---|---3-----3---|---1-----1---|-----3-----0-||
G ||-----2-------|-----2-------|-----0-------|-------------||
D ||-------------|-------------|-------------|-0-----------||
A ||-0-----------|-2-----------|-3-----------|-------------||
E ||-------------|-------------|-------------|---------0---||

Refrain :


    F             G             Am            Dm6 Add9      C             Dm      Em
e |-------1---1-|-------3---3-|-------0---0-|-------0---0-|-------0---0-|---1---1-----|
B |---1-----1---|---3-----3---|---1-----1---|---3-----3---|---1-----1---|-----3-----0-|
G |-----2-------|-----5-------|-----2-------|-----2-------|-----0-------|-------------|
D |-------------|-------------|-------------|-------------|-------------|-0-----------|
A |-------------|-------------|-0-----------|-2-----------|-3-----------|-------------|
E |-1-----------|-3-----------|-------------|-------------|-------------|---------0---|



Paroles


Tu connais mon tonton, tu connais sa compagne
Tu connais la maison qu'ils ont à la campagne
Tu connais mes parents, tu connaissais ma grand-mère
T'as pleuré avec maman au cim'tière
J'connais ton frangin, j'connais ta frangine
J'ai déjà vu ton père en slip dans sa cuisine
J'ai dormi dans la chambre, de quand t'étais gamine
Et j'ai lavé l'doudou du fils de ta cousine

Et si c'est l'temps qui passe qui fait qu'on se connaît
Il faut que le temps passe et ne s'arrête jamais

Tu connais mes potes, tu connais nos souv'nirs
Tu connais les anecdotes qui nous font rire
Tu connais mon état quand j'ai trop fais la fête
Et tu m'a vu déjà penché sur la cuvette
J'connais tes retards, j'connais ton boulot
J'connais le p'tit square au pied du métro
Je lis les post'it que tu m'mets sur l'frigo
Les revues d'l'a salle d'attente de ton gynéco

Et si c'est l'temps qui passe qui fait qu'on se connaît
Il faut que le temps passe et ne s'arrête jamais

Tu connais mes envies, tu connais mes prouesses
Tu sais qui j'ai aimé avant qu'on se connaisse
Tu me confis tes peurs et tu partages mes doutes
Tu corriges mes erreurs et tu les pardonnes toutes
J'connais tes soupirs, j'connais ton souffle
L'éclat de ton rire et le goût de ta bouche
J'écoute ta voix, et son chuchot'ment
Et comment tu respires en t'endormant

Et si c'est l'temps qui passe qui fait qu'on se connaît
Il faut que le temps passe et ne s'arrête jamais

Et si c'est l'temps qui passe qui fait qu'on se connaît
Il faut que le temps passe et ne s'arrête jamais