Tabsvolo.net - Tablature : J'ai beau


 Les tablatures : 68

Chanson française (2017)

Sans rire (2013)

C'est pas tout ça... (2010)

En attendant (2009)

Bref... Septembre 2008

  • Ma p'tite chanson
  • J'espère...
  • Bref

Jours heureux (2007)

Blancs Manteaux à Volo (2006)

Bien Zarbos (2004)

Tablature : J'ai beau

05-02-2013

Partager cette tablature

Télécharger la version imprimable




Ecouter un extrait composé de différentes parties de la tablature :



Légende :
> : Slide vers le bas pour préparer le prochain accord
~ : Vibrato
x : Corde jouée étouffée


Premier couplet :

     Bm                Bm        G       G                 G
e ||---------------2-|---------------3-|---------------3-|-----------------|
B ||-------3-----3---|-------3-----0-0-|-------0-----0-0-|-------0-------0-|
G ||-----4-----4-----|-----4-----0-----|-----0-----0-----|-----0-------0---|
D ||---4-----4-------|---4-----4-------|---0-------------|---0-------0-----|
A ||-2---------------|-2---------------|---------2-------|---------2-------|
E ||-----------------|-----------------|-3---------------|-3---------->----|

    Em                Em                Bb                F#
e |-----7-7-7-------|-----7-7-7-------|----6~-----------|------2-2-2-------|
B |-----8-8-8-------|-----8-8-8-------|-----------------|------2-2-2-------|
G |-----9-9-9------x|-----8-8-8-------|-------------x---|------3-3-3-------|
D |---9-9-9-9-------|---9-9-9-9-------|-------------x---|------4-4-4------0|
A |-7---7-7-7-------|-7---7-7-7-------|-------------x---|----4-4-4-4-------|
E |-----------------|-----------------|-6-----------x---|-2----2-2-2-------|

    Bm                Bm        G       G                 G
e |---------------2-|---------------3-|---------------3-|-----------------|
B |-------3-----3---|-------3-----0-0-|-------0-----0-0-|-------0-------0-|
G |-----4-----4-----|-----4-----0-----|-----0-----0-----|-----0-------0---|
D |---4-----4-------|---4-----4-------|---0-------------|---0-------0-----|
A |-2---------------|-2---------------|---------2-------|---------2-------|
E |-----------------|-----------------|-3---------------|-3----------->---|

    Em                Em                Bb                F#
e |-----7-7-7-------|-----7-7-7-------|----6~-----------|------2-2-2-------|
B |-----8-8-8-------|-----8-8-8-------|-----------------|------2-2-2-------|
G |-----9-9-9------0|-----8-8-8-------|-------------0---|------3-3-3-------|
D |---9-9-9-9-------|---9-9-9-9-------|-------------0---|------4-4-4-------|
A |-7---7-7-7-------|-7---7-7-7-------|-------------0---|----4-4-4-4-------|
E |-----------------|-----------------|-6-----------x---|-2----2-2-2-------|

Premier refrain :

    Em                B11               Am                B11
e |---------------0-|---------------0-|---------------0-|---------------0-|
B |-------0-----0---|-------0-----0---|-------1-----1---|-------0-----0---|
G |-----0-----0-----|-----2-----2-----|-----2-----2-----|-----2-----2-----|
D |---2-----2-------|---1-----1-------|---2-----2-------|---1-----1-------|
A |-----------------|-----------------|-0---------------|-----------------|
E |-0---------------|-2---------------|-----------------|-2---------------|

    G                 Am                B11
e |---------------0-|---------------0-|-----------------|-----------------|
B |-------0-----0---|-------1-----1---|-----------------|-----------------|
G |-----0-----0-----|-----2-----2-----|---------2-------|---------2---0---|
D |---0-------------|---2-----2-------|---------1-------|---------1---0---|
A |---------2-------|-0---------------|---------0-----0-|-0---0---0---0---|
E |-3---------------|-----------------|-2-------2-----2-|-2---2---2---0---|

Second couplet :

    Bm                Bm                 G                 G
e |---------2---x-x-|---------2---x-x--|---------3-------|---------3-------|
B |---------3---x-x-|---------3---x-x--|---------0-------|---------0-------|
G |---------4---x-x-|---------4---x-x--|---------0-------|---------0-------|
D |---------4---x-x-|---------4---x-x--|---------0-------|---------0-------|
A |-2---2---2---x-x-|-2---2---2---x-x--|-2---2---2-----2-|-2---2---2-------|
E |-2---2---2---x-x-|-2---2---2---x-x--|-3---3---3-----3-|-3---3---3->-----|

    Em                Em                Bb                F#
e |-----7-7-7-------|-----7-7-7-------|----6~-----------|-----2-2-2-------|
B |-----8-8-8-------|-----8-8-8-------|-----------------|-----2-2-2-------|
G |-----9-9-9-------|-----8-8-8-------|-------------x---|-----3-3-3-------|
D |---9-9-9-9------x|---9-9-9-9-------|-------------x---|---4-4-4-4------0|
A |-7---7-7-7-------|-7---7-7-7-------|-------------x---|-----4-4-4-------|
E |-----------------|-----------------|-6-----------x---|-2---2-3-3-------|

    Bm                Bm                 G                 G
e |---------2---x-x-|---------2---x-x--|---------3-------|---------3-------|
B |---------3---x-x-|---------3---x-x--|---------0-------|---------0-------|
G |---------4---x-x-|---------4---x-x--|---------0-------|---------0------0|
D |---------4---x-x-|---------4---x-x--|---------0-------|---------0-------|
A |-2---2---2---x-x-|-2---2---2---x-x--|-2---2---2-----2-|-2---2---2-------|
E |-2---2---2---x-x-|-2---2---2---x-x--|-3---3---3-----3-|-3---3---3->-----|

    Em                Em                Bb                F#
e |-----7-7-7-------|-----7-7-7-------|---------6~------|-----2-2-2-------|
B |-----8-8-8-------|-----8-8-8-------|-----------------|-----2-2-2-------|
G |-----9-9-9-------|-----8-8-8-------|-------------x---|-----3-3-3-------|
D |---9-9-9-9------x|---9-9-9-9-------|-------------x---|---4-4-4-4-------|
A |-7---7-7-7-------|-7---7-7-7-------|-------------x---|-----4-4-4-------|
E |-----------------|-----------------|-6-----------x---|-2---2-3-3-------|

Second refrain :

    Em                B11               Am                B11
e |---------------0-|---------------0-|---------------0-|---------------0-|
B |-------0-----0---|-------0-----0---|-------1-----1---|-------0-----0---|
G |-----0-----0-----|-----2-----2-----|-----2-----2-----|-----2-----2-----|
D |---2-----2-------|---1-----1-------|---2-----2-------|---1-----1-------|
A |-----------------|-----------------|-0---------------|-----------------|
E |-0---------------|-2---------------|-----------------|-2---------------|

    G                 Am                B11
e |---------------0-|---------------0-|-----------------|-----------------|
B |-------0-----0---|-------1-----1---|-----------------|-----------------|
G |-----0-----0-----|-----2-----2-----|---------2-------|---------2---0---|
D |---0-------------|---2-----2-------|---------1-------|---------1---0---|
A |---------2-------|-0---------------|-----0---0-----0-|-0---0---0---0---|
E |-3---------------|-----------------|-2---2---2-----2-|-2---2---2---0---|

    Em                B11               Am                B11
e |----------0--0-0-|----------0--0-0-|----------0--0-0-|----------x------|
B |----------0--0-0-|----------0--0-0-|----------1--1-1-|----------x------|
G |----------0--0-0-|----------2--2-2-|----------2--2-2-|----------x------|
D |-2--2--2--2--2-2-|-1--1--1--1--1-1-|-2--2--2--2--2-2-|-1--1-----x------|
A |-2--2--2--2--2-2-|-0--0--0--0--0-0-|-0--0--0--0--0-0-|-0--0-----x------|
E |-0--0--0--0--0-0-|-2--2--2--2--2-2-|-0--0--0--0--0-0-|-2--2-----x------|

    G                 Am                B11
e |---------------0-|---------------0-|---------------0-|---------------0-|
B |-------0-----0---|-------1-----1---|-------0-----0---|-------0-----0---|
G |-----0-----0-----|-----2-----2-----|-----2-----2-----|-----2-----2-----|
D |---0-------------|---2-----2-------|---1-----1-------|---1-----1-------|
A |---------2-------|-0---------------|-----------------|-----------------|
E |-3---------------|-----------------|-2---------------|-2---------------|

Fin :

e |-------0----|-------0----|-------0----|------------0-|-------0----|-------0----|
B |----------0-|----0-----0-|----1-----1-|------1-------|----0-----0-|----0-----0-|
G |----0-------|------------|------------|--------0^2---|------------|------------|
D |------------|------------|------------|--------------|------------|------------|
A |------------|------------|-0----------|-3------------|------------|------------|
E |-0----------|-2----------|------------|--------------|-0----------|-2----------|

e |-------0----|--------------|-------0----|-------0----|-------0----|--------------|
B |----1-----1-|------1-----1-|----0-----0-|----0-----0-|----1-----1-|------1-----1-|
G |------------|--------------|------------|------------|------------|--------------|
D |------------|--------0^2---|------------|------------|------------|--------0^2---|
A |-0----------|-3------------|------------|------------|-0----------|-3------------|
E |------------|--------------|-0----------|-2----------|------------|--------------|

e |-------0----|-------0----|-------0----|----------------|
B |----0-----0-|----0-----0-|----1-----1-|------1-------0-|
G |------------|------------|------------|------------2---|
D |------------|------------|------------|--------0^2-----|
A |------------|------------|-0----------|-3--------------|
E |-0----------|-2----------|------------|----------------|

e |-------0----|-------0----|-------0----|----------------|
B |----0-----0-|----0-----0-|----1-----1-|------1-------1-|
G |------------|------------|------------|----------------|
D |------------|------------|------------|---------0^2----|
A |------------|------------|-0----------|-3--------------|
E |-0----------|-2----------|------------|----------------|

                                                                     Em
e |-------0----|-------0----|-------0----|----------------|---------------0--||
B |----0-----0-|----0-----0-|----1-----1-|------1-------1-|-----1--------0---||
G |------------|------------|------------|----------------|-------------0----||
D |------------|------------|------------|---------0^2----|-0^2--------2-----||
A |------------|------------|-0----------|-3--------------|-----------2------||
E |-0----------|-2----------|------------|----------------|----------0-------||



Paroles

J'ai passé l'âge des blocages
Et pourtant je bloque
Je suis dans l'âge bavardage
Champion du soliloque
Je passe mon temps à me plaindre
Et même si j'adore qu'on me rassure
Je fais semblant de feindre
Les compliments comme des injures

J'ai beau être c'que j'suis
Je ne m'aime pas moins pour autant
J'voudrais qu'ce soit pareil pour toi
Pour que je m'aime vraiment

Je sais qu'il serait plus sage
Avant que tout ne soit perdu
Que j'me décolle - c'est une image -
Les doigts du cul
Faudrait que j'fasse ce qu'il faut
Faudrait peut-être du courage
Pour tourner tous mes défauts
A ton avantage

J'ai beau être c'que j'suis
Je ne m'aime pas moins pour autant
J'voudrais qu'ce soit pareil pour toi
Pour que je m'aime vraiment

J'ai beau être c'que j'suis
Je ne m'aime pas moins pour autant
J'voudrais qu'ce soit pareil pour toi
Pour que je m'aime vraiment

Tu t'endors sur le côté
Sur ta main ton grain de beauté
S'est glissé sous mon oreiller
Sans te réveiller
Tu prends toute la place dans le lit
Tu prends toute la place dans ma vie
Je sais pas si j't'ai déjà dit
J'ai beau être c'que j'suis...