Tabsvolo.net - Tablature : On


 Les tablatures : 68

Chanson française (2017)

Sans rire (2013)

C'est pas tout ça... (2010)

En attendant (2009)

Bref... Septembre 2008

  • Ma p'tite chanson
  • J'espère...
  • Bref

Jours heureux (2007)

Blancs Manteaux à Volo (2006)

Bien Zarbos (2004)

Tablature : On

Rev.2 | 23-04-2011

Partager cette tablature

Télécharger la version imprimable 


Ecouter un extrait composé de différentes parties de la tablature :



Légende :
= : Slide vers le haut du manche
^ : Pull-off

Couplets 1 et 2

     D      F#m    Bm    A        D      F#m    Bm    A
e ||-------------|--------------|-------------|------------|
B ||----7=-----2-|----3-----3^2-|----7=-----2-|----3-----2-|
G ||----7=-----2-|----4-----2---|----7=-----2-|----4-----2-|
D ||-------------|--------------|-------------|------------|
A ||-5-----------|-2-----0------|-5-----------|-2-----0----|
E ||--------2----|--------------|--------2----|------------|

    G            A            Bm           A            A
e |------------|------------|------------|------------|------------|
B |----0-----0-|----2-----2-|----3-----3-|----2-----2-|----2-----2-|
G |----0-----0-|----2-----2-|----4-----4-|----2-----2-|----2-----2-|
D |------------|-------2----|-------4----|-------2----|-------2----|
A |-------2----|-0----------|-2----------|-0----------|-0----------|
E |-3----------|------------|------------|------------|------------|

    D      F#m    Bm    A        D      F#m    Bm    A
e |-------------|--------------|-------------|------------|
B |----7=-----2-|----3-----3^2-|----7=-----2-|----3-----2-|
G |----7=-----2-|----4-----2---|----7=-----2-|----4-----2-|
D |-------------|--------------|-------------|------------|
A |-5-----------|-2-----0------|-5-----------|-2-----0----|
E |--------2----|--------------|--------2----|------------|

    G            A            Bm           G            A            A
e |------------|------------|------------|------------|------------|------------|
B |----0-----0-|----2-----2-|----3-----3-|----0-----0-|----2-----2-|----2-----2-|
G |----0-----0-|----2-----2-|----4-----4-|----0-----0-|----2-----2-|----2-----2-|
D |------------|-------2----|-------4----|------------|-------2----|-------2----|
A |-------2----|-0----------|-2----------|-------2----|-0----------|-0----------|
E |-3----------|------------|------------|-3----------|------------|------------|


1er refrain

    G     A       Bm7   A6     G     Em     A
e |-------------|------------|------------|------------|
B |----0-----5--|----3-----2-|----3-----8-|----5-----5-|
G |----0-----6--|----2-----2-|----4-----9-|----6-----6-|
D |-------------|------------|------------|------------|
A |-------5-----|-2----------|-3-----7----|-------7----|
E |-3-----------|-------2----|------------|-5----------|

    G     A       Bm7   A6     G     D      A            A
e |-------------|------------|------------|-------5-5--|-------5-5--|
B |----0-----5--|----3-----2-|----3-----7-|-------5-5--|-------5-5--|
G |----0-----6--|----2-----2-|----4-----7-|----6--6-6--|----6--6-6--|
D |-------------|------------|------------|-------7-7--|-------7-7--|
A |-------5-----|-2-----2----|-3-----5----|-------7----|-------7----|
E |-3-----------|------------|------------|-5-----5----|-5-----5----|


2ème et dernier refrain

    G     A       Bm7   A6     G     Em     A
e |-------------|------------|------------|-------5-5--|
B |----0-----5--|----3-----2-|----3-----8-|-------5-5--|
G |----0-----6--|----2-----2-|----4-----9-|----6--6-6--|
D |-------------|------------|------------|-------7-7--|
A |-------5-----|-2-----2----|-3-----7----|-------7----|
E |-3-----------|------------|------------|-5-----5----|

    G     A       Bm7   A6     G     D      A
e |-------------|------------|------------|-------5----|
B |----0-----5--|----3-----2-|----3-----7-|-5-----5----|
G |----0-----6--|----2-----2-|----4-----7-|-6-----6----|
D |-------------|------------|------------|-7-----7----|
A |-------5-----|-2-----2----|-3-----5----|-7-----7----|
E |-3-----------|------------|------------|-5-----5----|

    G     A       Bm7   A6     G     Em     A
e |-------------|------------|------------|-5----------|-----------|
B |----0-----5--|----3-----2-|----3-----8-|-5----------|-----------|
G |----0-----6--|----2-----2-|----4-----9-|-6----------|-----------|
D |-------------|------------|------------|-7----------|-----------|
A |-------5-----|-2-----2----|-3-----7----|-7----------|-----------|
E |-3-----------|------------|------------|-5----------|-12=-------|

    G     A       Bm7   A6     G     D      A            A
e |-------------|------------|------------|-------5-5--|-------5-5--|
B |----0-----5--|----3-----2-|----3-----7-|-------5-5--|-------5-5--|
G |----0-----6--|----2-----2-|----4-----7-|----6--6-6--|----6--6-6--|
D |-------------|------------|------------|-------7-7--|-------7-7--|
A |-------5-----|-2-----2----|-3-----5----|-------7----|-------7----|
E |-3-----------|------------|------------|-5-----5----|-5-----5----|


Fin

    D      F#m    Bm
e |-------------|--------------||
B |----7=-----2-|----3---------||
G |----7=-----2-|----4---------||
D |-------------|--------------||
A |-5-----------|-2------------||
E |--------2----|--------------||


Paroles


On n'avait pas prévu de se revoir aussi tôt
Tu traversais la rue, je rentrais dans le métro
J'ai tout d'suite reconnu, reconnu ton manteau
T'avais rien de prévu, on a été se prendre un pot
On avait pas prévu de s'embrasser aussi tôt
En fait on n'a rien bu, on s'est roulé des palots
Comme on était foutu, comme il ne faisait pas beau
Comme on était perdu, comme on était trop trop chaud

On a fait l'amour comme avant
Comme quand on n'avait pas peur
On a fait l'amour comme quand
On se connaissait par coeur

On n'avait pas prévu de se revoir aussi tard
T'as tout d'suite reconnu, reconnu ma guitare
D'abord on n'a pas pu, on n'a pas pu y croire
On était tout ému, on était tout bizarre
Depuis qu'on s'était vu, y'en a eu des histoires
Toute une vie de vécue, des problèmes de mémoire
Ce coup-là on a bu, on a bu jusqu'au soir
On s'est pas retenu, on s'est pas dit au r'voir

On a fait l'amour comme avant
Comme quand on n'avait pas peur
On a fait l'amour comme quand
On se connaissait par coeur – Woh woh woh woh

On a fait l'amour comme avant - comme avant
Comme quand on n'avait pas peur
On a fait l'amour comme quand
On se connaissait par coeur