Tabsvolo.net - Tablature : Chanson Française


 Les tablatures : 68

Chanson française (2017)

Sans rire (2013)

C'est pas tout ça... (2010)

En attendant (2009)

Bref... Septembre 2008

  • Ma p'tite chanson
  • J'espère...
  • Bref

Jours heureux (2007)

Blancs Manteaux à Volo (2006)

Bien Zarbos (2004)

Tablature : Chanson Française

03-12-2016

Partager cette tablature

Télécharger la version imprimable 


Ecouter un extrait composé de différentes parties de la tablature :



Légende :
||------|| (xN) : Jouer N fois la partie entre les ||
                  t : taper sur les cordes avec la main droite (les ongles)
                  < : slide vers le haut du manche

Intro : (version légère)


     C#m                 F#m                    B                   B
e ||-------------------|----------------------|-------------------|------7------------|
B ||------5----t-----5-|------10----t------10-|------7----t-----7-|-----7-------------|
G ||------6----t-----6-|------11----t------11-|------8----t-----8-|----8--------------|
D ||-----------t---6---|------------t---11----|-----------t-------|---9---------------|
A ||-4---------t-------|-9----------t---------|-----------t---9---|--9----------------|
E ||-------------------|----------------------|-7-----------------|-7-----------------|


Couplets :

    C#m                                     C
e |-------------------|-------------------|--------------------|---------------------|
B |------5----t-----5-|------5----t-----5-|------8----t------8-|-------8----t------8-|
G |------6----t-----6-|------6----t-----6-|------9----t------9-|-------9----t------9-|
D |-----------t---6---|-----------t---6---|-----------t--------|-10---------t--------|
A |-4---------t-------|-4---------t-------|-----------t---10---|------------t---10---|
E |-------------------|-------------------|-8------------------|---------------------|

    E                                       G#
e |-------------------|-------------------|-------------------|-------------------|
B |------0----t-----0-|------0----t-----0-|------4----t-----4-|------4----t-----4-|
G |------1----t-----1-|------1----t-----1-|------5----t-----5-|------5----t-----5-|
D |-----------t-------|-2---------t-------|-----------t-------|-6---------t-------|
A |-----------t---2---|-----------t---2---|-----------t---6---|-----------t---6---|
E |-0-----------------|-------------------|-4-----------------|-------------------|

    A                                       F#m
e |-------------------|-------------------|----------------------|----------------------|
B |------5----t-----5-|------5----t-----5-|------10----t------10-|------10----t------10-|
G |------6----t-----6-|------6----t-----6-|------11----t------11-|------11----t------11-|
D |-----------t-------|-7---------t-------|------------t---11----|------------t---11----|
A |-----------t---7---|-----------t---7---|-9----------t---------|-9----------t---------|
E |-5-----------------|-------------------|----------------------|----------------------|

    F#m6                                    G#
e |-------------------|-------------------|-------------------|------4-------------|
B |------7----t-----7-|------7----t-----7-|------4----t-----4-|-----4--------------|
G |------6----t-----6-|------6----t-----6-|------5----t-----5-|----5---------------|
D |-----------t---7---|-----------t---7---|-----------t-------|---6----------------|
A |-6---------t-------|-6---------t-------|-----------t---6---|--6-----------------|
E |-------------------|-------------------|-4-----------------|-4------------------|

Refrain :

    C#m                                     E
e |-------------------|-------------------|-------------------|-------------------|
B |------5----t-----5-|------5----t-----5-|------0----t-----0-|------0----t-----0-|
G |------6----t-----6-|------6----t-----6-|------1----t-----1-|------1----t-----1-|
D |-----------t---6---|-----------t---6---|-----------t-------|-2---------t-------|
A |-4---------t-------|-4---------t-------|-----------t---2---|-----------t---2---|
E |-------------------|-------------------|-0-----------------|-------------------|

    F#m                                           G#
e |----------------------|----------------------|-------------------|-------------------|
B |------10----t------10-|------10----t------10-|------4----t-----4-|------4----t-----4-|
G |------11----t------11-|------11----t------11-|------5----t-----5-|------5----t-----5-|
D |------------t---11----|------------t---11>---|-----------t-------|-6---------t-------|
A |-9----------t---------|-9----------t---------|-----------t---6---|-----------t---6---|
E |----------------------|----------------------|-4-----------------|-------------------|

    C#m                                     E
e |-------------------|-------------------|-------------------|-------------------|
B |------5----t-----5-|------5----t-----5-|------0----t-----0-|------0----t-----0-|
G |------6----t-----6-|------6----t-----6-|------1----t-----1-|------1----t-----1-|
D |-----------t---6---|-----------t---6---|-----------t-------|-2---------t-------|
A |-4---------t-------|-4---------t-------|-----------t---2---|-----------t---2---|
E |-------------------|-------------------|-0-----------------|-------------------|

    F#m                                           A                   G#
e |----------------------|----------------------|-------------------|-------------------|
B |------10----t------10-|------10----t------10-|------5----t-----5-|------4----t-----4-|
G |------11----t------11-|------11----t------11-|------6----t-----6-|------5----t-----5-|
D |------------t---11----|------------t---11>---|-----------t-------|-----------t-------|
A |-9----------t---------|-9----------t---------|-----------t---7---|-----------t---6---|
E |----------------------|----------------------|-5-----------------|-4-----------------|


Tip ti badoum...

    C#m                 E                   F#m                    B
e |-------------------|-------------------|----------------------|-------------------|
B |------5----t-----5-|------0----t-----0-|------10----t------10-|------7----t-----7-|
G |------6----t-----6-|------1----t-----1-|------11----t------11-|------8----t-----8-|
D |-----------t---6---|-----------t-------|------------t---11----|-----------t-------|
A |-4---------t-------|-----------t---2---|-9----------t---------|-----------t---9---|
E |-------------------|-0-----------------|----------------------|-7-----------------|

{ 2ème couplet }

{ Refrain }

{ 3ème couplet }

{ Refrain }

Fin :

     C#m                                     E
e ||-------------------|-------------------|-------------------|-------------------|
B ||------5----t-----5-|------5----t-----5-|------0----t-----0-|------0----t-----0-|
G ||------6----t-----6-|------6----t-----6-|------1----t-----1-|------1----t-----1-|
D ||-----------t---6---|-----------t---6---|-----------t-------|-2---------t-------|
A ||-4---------t-------|-4---------t-------|-----------t---2---|-----------t---2---|
E ||-------------------|-------------------|-0-----------------|-------------------|

    F#m                                           G#
e |----------------------|----------------------|-------------------|-------------------||
B |------10----t------10-|------10----t------10-|------4----t-----4-|------4----t-----4-||
G |------11----t------11-|------11----t------11-|------5----t-----5-|------5----t-----5-|| (x2)
D |------------t---11----|------------t---11>---|-----------t-------|-6---------t-------||
A |-9----------t---------|-9----------t---------|-----------t---6---|-----------t---6---||
E |----------------------|----------------------|-4-----------------|-------------------||

    C#m                 E                   F#m                    G#
e |-------------------|-------------------|----------------------|-------------------|
B |------5----t-----5-|------0----t-----0-|------10----t------10-|------4----t-----4-|
G |------6----t-----6-|------1----t-----1-|------11----t------11-|------5----t-----5-|
D |-----------t---6---|-----------t-------|------------t---11----|-----------t-------|
A |-4---------t-------|-----------t---2---|-9----------t---------|-----------t---6---|
E |-------------------|-0-----------------|----------------------|-4-----------------|

    C#m
e |------4--------------------------------------------------------------------------||
B |-----5---------------------------------------------------------------------------||
G |----6----------------------------------------------------------------------------||
D |---6-----------------------------------------------------------------------------||
A |--4------------------------------------------------------------------------------||
E |-4-------------------------------------------------------------------------------||



Paroles

On est d'accord, j'ai l'air de rien
Sous tous rapports je vous préviens
Que face à vos emplois du temps de pop star
Et juste en grattant sur ma guitare
C'est tout votre succès commercial
Et je crois de manière crutiale
Que vous devrez revoir à la baisse
Des parts de marché de votre show business


Attention les Lady Gaga, les Rihanna, les Christina Aguilera
Je vais vous mettre à l'aide, c'est d'la chanson française
Attention les Madonna, les Shakira plus toutes celles que j'connais pas
Je vais vous mettre à l'aide, c'est de la chanson française


Loin de faire vos tournées mondiales
Bien caché dans mon corps social
Je ne suis pas une chanteuse à voix
Et même si vous dansez bien mieux que moi
L'égémonie faite en cartel
Des égéries en porte jartelle
Au coeur de cible du système
Dans le genre du panel au même


Attention les Lady Gaga, les Rihanna, les Christina Aguilera
Je vais vous mettre à l'aide, c'est d'la chanson française
Attention les Madonna, les Shakira plus toutes celles que j'connais pas
Je vais vous mettre à l'aide, c'est de la chanson française


C'est pas du groove, c'est pas du Funk
Je n'me cache pas comme les Daft Punk
Et loin de vouloir changer le monde
Avec ces trois minutes et ces cinquante-quatre secondes
Dans le format et les quotas
A l'inverse de David Guetta
Et quand je me permets des "oh yeah"
C'est toujours dans la langue de Molière


Attention les Lady Gaga, les Rihanna, les Christina Aguilera
Je vais vous mettre à l'aide, c'est d'la chanson française
Attention les Madonna, les Shakira plus toutes celles que j'connais pas
Je vais vous mettre à l'aide, c'est de la chanson française