Tabsvolo.net - Tablature : Les lapins


 Les tablatures : 68

Chanson française (2017)

Sans rire (2013)

C'est pas tout ça... (2010)

En attendant (2009)

Bref... Septembre 2008

  • Ma p'tite chanson
  • J'espère...
  • Bref

Jours heureux (2007)

Blancs Manteaux à Volo (2006)

Bien Zarbos (2004)

Tablature : Les lapins

Télécharger la version imprimable




Ecouter un extrait composé de différentes parties de la tablature :


Légende :
=     : Slide vers le haut du manche
x>y : Slide de la case x à la case y

Intro :

     Am                A sus2            B/D7              D6
e ||-----------------|-----------------|-----------------|-----------------|
B ||-------1---------|-------0---------|-------1---------|-------0---------|
G ||-----2---2-----2-|-----2---2-------|-----2---2-----2-|-----2---2-----0-|
D ||---2-------2-----|---2-------2---0-|---0-------0-----|---0-------0-----|
A ||-0-----------0---|-0-----------0---|-2-----------2---|-2-----------2---|
E ||-----------------|-----------------|-----------------|-----------------|

    C                 C7                F                G
e |-----------------|-----------------|----------------|-----------------|
B |-------1---------|-------0---------|-------1--------|-------3---------|
G |-----0---0-----0-|-----0---0-----0-|-----2---2------|-----4---4-----0-|
D |---2-------2-----|---2-------2-----|---3-------3----|---5-------5-----|
A |-3-----------3---|-3-----------3---|----------------|-----------------|
E |-----------------|-----------------|-1-----------1->|-3-----------3---|


Couplet :

     Am                A sus2            B/D7              D6
e ||-----------------|-----------------|-----------------|-----------------|
B ||-------1---------|-------0---------|-------1---------|-------0---------|
G ||-----2---2-----2-|-----2---2-------|-----2---2-----2-|-----2---2-----0-|
D ||---2-------2-----|---2-------2---0-|---0-------0-----|---0-------0-----|
A ||-0-----------0---|-0-----------0---|-2-----------2---|-2-----------2---|
E ||-----------------|-----------------|-----------------|-----------------|

    C                 C7                F                G
e |-----------------|-----------------|----------------|-----------------|
B |-------1---------|-------0---------|-------1--------|-------3---------|
G |-----0---0-----0-|-----0---0-----0-|-----2---2------|-----4---4-----0-|
D |---2-------2-----|---2-------2-----|---3-------3----|---5-------5-----|
A |-3-----------3---|-3-----------3---|----------------|-----------------|
E |-----------------|-----------------|-1-----------1->|-3-----------3---|

    Am                A sus2            B/D7              D6
e |-----------------|-----------------|-----------------|-----------------|
B |-------1---------|-------0---------|-------1---------|-------0---------|
G |-----2---2-----2-|-----2---2-------|-----2---2-----2-|-----2---2-----0-|
D |---2-------2-----|---2-------2---0-|---0-------0-----|---0-------0-----|
A |-0-----------0---|-0-----------0---|-2-----------2---|-2-----------2---|
E |-----------------|-----------------|-----------------|-----------------|

    C                 C7                F                G
e |-----------------|-----------------|----------------|-----------------|
B |-------1---------|-------0---------|-------1--------|-----------------|
G |-----0---0-----0-|-----0---0-----0-|-----2---2------|-----------------|
D |---2-------2-----|---2-------2-----|---3-------3----|-----------------|
A |-3-----------3---|-3-----------3---|----------------|-----------------|
E |-----------------|-----------------|-1-----------1->|-3---------------|


Refrain :

     Dm    G      C     Am     D            F
e ||------------|------------|------------|------------||
B ||----6-----3-|----1-----1-|----3-----3-|----1-----1-||
G ||----7-----4-|----0-----2-|----2-----2-|----2-----2-|| (x2)
D ||------------|------------|------------|------------||
A ||------------|-3-----0----|------------|-------3----||
E ||-5-----3----|------------|-2-----2----|-1----------||

    E                  E
e |--------------------0-0-|
B |-------------0------0-0-|
G |----------1---------1-1-|
D |-------2------------2-2-|
A |----2---------------2-2-|
E |-0------------------0-0-|


Couplet :

     Am                A sus2            B/D7              D6
e ||-----------------|-----------------|-----------------|-----------------|
B ||-------1---------|-------0---------|-------1---------|-------0---------|
G ||-----2---2-----2-|-----2---2-------|-----2---2-----2-|-----2---2-----0-|
D ||---2-------2-----|---2-------2---0-|---0-------0-----|---0-------0-----|
A ||-0-----------0---|-0-----------0---|-2-----------2---|-2-----------2---|
E ||-----------------|-----------------|-----------------|-----------------|

    C                 C7                F                G
e |-----------------|-----------------|----------------|-----------------||
B |-------1---------|-------0---------|-------1--------|-------3---------||
G |-----0---0-----0-|-----0---0-----0-|-----2---2------|-----4---4-----0-|| (x3)
D |---2-------2-----|---2-------2-----|---3-------3----|---5-------5-----||
A |-3-----------3---|-3-----------3---|----------------|-----------------||
E |-----------------|-----------------|-1-----------1->|-3-----------3---||

    Am                A sus2            B/D7              D6
e |-----------------|-----------------|-----------------|-----------------|
B |-------1---------|-------0---------|-------1---------|-------0---------|
G |-----2---2-----2-|-----2---2-------|-----2---2-----2-|-----2---2-----0-|
D |---2-------2-----|---2-------2---0-|---0-------0-----|---0-------0-----|
A |-0-----------0---|-0-----------0---|-2-----------2---|-2-----------2---|
E |-----------------|-----------------|-----------------|-----------------|

    C                 C7                F                G
e |-----------------|-----------------|----------------|-----------------|
B |-------1---------|-------0---------|-------1--------|-----------------|
G |-----0---0-----0-|-----0---0-----0-|-----2---2------|-----------------|
D |---2-------2-----|---2-------2-----|---3-------3----|-----------------|
A |-3-----------3---|-3-----------3---|----------------|-----------------|
E |-----------------|-----------------|-1-----------1->|-3---------------|

e |-------------|
B |-------------|
G |-------------|
D |-------------|
A |------x------|
E |------12=----|


Refrain et fin :

     Dm    G      C     Am     D            F
e ||------------|------------|------------|------------||
B ||----6-----3-|----1-----1-|----3-----3-|----1-----1-||
G ||----7-----4-|----0-----2-|----2-----2-|----2-----2-|| (x2)
D ||------------|------------|------------|------------||
A ||------------|-3-----0----|------------|-------3----||
E ||-5-----3----|------------|-2-----2----|-1----------||

    Dm    G      C     Am     D            F
e |------------|------------|------------|------------|
B |----6-----3-|----1-----1-|-------3----|------------|
G |----7-----4-|----0-----2-|-------2----|----------2-|
D |------------|------------|------------|-------3----|
A |------------|-3-----0----|------------|----3-------|
E |-5-----3----|------------|-2----------|-1----------|

    Dm    G      C     Am     D            F
e |------------|------------|------------|------------|
B |----6-----3-|----1-----1-|----3-----3-|----1-----1-|
G |----7-----4-|----0-----2-|----2-----2-|----2-----2-|
D |------------|------------|------------|------------|
A |------------|-3-----0----|------------|-------3----|
E |-5-----3----|------------|-2-----2----|-1----------|

    E                                         Am
e |------------------|----------------------|-0--||
B |-------------0----|--------------------0-|-1--||
G |----------1-------|---x----x-x----x----0-|-2--||
D |-------2----------|---x----x-x----x----0-|-2--||
A |----2-------------|---x----x-x----x----0-|-0--||
E |-0----------------|---x----x-x----x------|----||


Paroles


Elles ont à chaque fois une excuse
Dans ces cas là les idées fusent
C'est à cause de sa mère malade
Sa voiture qu'est tombée en rade
Elle avait plus mon numéro
Elle s'rappelait plus c'qu'on s'était dit
Elle a trop attendu l'métro
Elle pensait que c'était mardi

Refrain :
Elle m'pose des lapins dans les bars
Elle m'pose des lapins dans les gares
Elle m'pose des lapins sous la pluie
A minuit de temps en temps
Elle m'pose des lapins dans les squares
Elle m'pose des lapins sur l'boulevard
Et comme par exemple aujourd'hui
C'est sûrement lui qu'j'attends

Explications
Justifications
Des complications
Elles font preuves d'imagination
Elle a pas trouvé où s'garer
Elle pensait que j'm'étais barré
Elle a dû passer chez sa sœur
Chez elle y a eu un incendie
Elle est restée coincée dans l'ascenseur
Elle pensait que c'était jeudi

C'est à cause d'une réunion
A cause d'un accident d'avion
Bien sur, y a les embouteillages
Elle a failli v'nir à la nage
Elle a été prise en otage
Son parachute ne s'est pas ouvert
Elle a reçu un coup d'fil de la Maison Blanche
Y'a eu un tremblement de terre
Et une guerre civile
Elle pensait que c'était dimanche

Refrain :
Elle m'pose des lapins dans les bars
Elle m'pose des lapins dans les squares
Elle m'pose des lapins sous la pluie
A minuit de temps en temps
Elle m'pose des lapins dans les squares
Elle m'pose des lapins sur l'boulevard
Et comme par exemple aujourd'hui
C'est sûrement lui qu'j'attends
Elle m'pose des lapins en terrasse
Elle m'pose des lapins sur des places
M'pose des lapins quand il fait beau
Mais ça c'est pas souvent
S'prendre des lapins c'est dégueulasse
Se prendre des lapins dans la face
Je préfér'rais me prendre des râteaux
Je préfér'rais me prendre des vents

Je préfér'rais qu'elle me dise non