Tabsvolo.net - Tablature : Disons


 Les tablatures : 71

Avec son frère (2020)

  • Avec son frère
  • Je me demande quand
  • Jeune et beau
  • Joséphine
  • Disons
  • Contre lune
  • Un peu, beaucoup
  • Bout de trottoir
  • En vérité
  • De mon mieux
  • Depuis quand
  • Heures pleines
  • Chanson d'automne
  • C'est toi

Chanson française (2017)

Sans rire (2013)

C'est pas tout ça... (2010)

En attendant (2009)

Bref... Septembre 2008

  • Ma p'tite chanson
  • J'espère...
  • Bref

Jours heureux (2007)

Blancs Manteaux à Volo (2006)

Bien Zarbos (2004)

Tablature : Disons

03-12-2016

Partager cette tablature

Télécharger la version imprimable 


Ecouter un extrait composé de différentes parties de la tablature :



Légende :
||------|| (xN) : Jouer N fois la partie entre les ||
                  t : taper sur les cordes avec la main droite (les ongles)
                  < : slide vers le haut du manche

Intro :

     Bm                   F#m
e ||--------------------|-----------------------||
B ||------3----t-----3--|------10----t------10--||
G ||------4----t-----4--|------11----t------11--|| x2
D ||-----------t--4--->-|------------t--11----<-||
A ||-2---------t--------|-0----------t----------||
E ||--------------------|-----------------------||


Couplets :

     Bm                   F#m
e ||--------------------|-----------------------||
B ||------3----t-----3--|------10----t------10--||
G ||------4----t-----4--|------11----t------11--|| x4
D ||-----------t--4--->-|------------t--11----<-||
A ||-2---------t--------|-0----------t----------||
E ||--------------------|-----------------------||

    D                       G                   F#m                    A
e |-----------------------|-------------------|----------------------|-------------------|
B |-------10----t------10-|------3----t-----3-|------10----t------10-|------5----t-----5-|
G |-------11----t------11-|------4----t-----4-|------11----t------11-|------6----t-----6-|
D |-------------t---------|-----------t-------|------------t--11-----|-----------t-------|
A |-------------t--12-----|-----------t--5----|-9----------t---------|-----------t--7----|
E |-10--------------------|-3-----------------|----------------------|-5-----------------|

    Bm                   F#m                     Bm                   F#m
e |--------------------|-----------------------|--------------------|--------------------|
B |------3----t-----3--|------10----t------10--|------3----t-----3--|------10----t-------|
G |------4----t-----4--|------11----t------11--|------4----t-----4--|------11----t-------|
D |-----------t--4--->-|------------t--11----<-|-----------t--4--->-|------------t-------|
A |-2---------t--------|-0----------t----------|-2---------t--------|-0----------t-------|
E |--------------------|-----------------------|--------------------|--------------------|

     Bm                   F#m
e ||--------------------|-----------------------||
B ||------3----t-----3--|------10----t------10--||
G ||------4----t-----4--|------11----t------11--|| x4
D ||-----------t--4--->-|------------t--11----<-||
A ||-2---------t--------|-0----------t----------||
E ||--------------------|-----------------------||

    D                       G                   F#m                    A
e |-----------------------|-------------------|----------------------|-------------------|
B |-------10----t------10-|------3----t-----3-|------10----t------10-|------5----t-----5-|
G |-------11----t------11-|------4----t-----4-|------11----t------11-|------6----t-----6-|
D |-------------t---------|-----------t-------|------------t--11-----|-----------t-------|
A |-------------t--12-----|-----------t--5----|-9----------t---------|-----------t--7----|
E |-10--------------------|-3-----------------|----------------------|-5-----------------|

     Bm                   F#m
e ||--------------------|-----------------------||
B ||------3----t-----3--|------10----t------10--||
G ||------4----t-----4--|------11----t------11--|| x2
D ||-----------t--4--->-|------------t--11----<-||
A ||-2---------t--------|-0----------t----------||
E ||--------------------|-----------------------||


Refrain 1,2 :

    Em                  G                   D                       A                   Gm
e |-------------------|-------------------|-----------------------|-------------------|---------------------|
B |------8----t-----8-|------3----t-----3-|-------10----t------10-|------5----t-----5-|-------11------------|
G |------9----t-----9-|------4----t-----4-|-------11----t------11-|------6----t-----6-|-------12------------|
D |-----------t--9----|-----------t-------|-------------t--12-----|-----------t-------|---------------------|
A |-7---------t-------|-----------t--5----|-------------t---------|-----------t--7----|-10------------------|
E |-------------------|-3-----------------|-10--------------------|-5-----------------|---------------------|

     Bm                   F#m
e ||--------------------|-----------------------||
B ||------3----t-----3--|------10----t------10--||
G ||------4----t-----4--|------11----t------11--|| x2
D ||-----------t--4--->-|------------t--11----<-||
A ||-2---------t--------|-0----------t----------||
E ||--------------------|-----------------------||

{ 2ème couplet }

{ 2ème refrain }


3ème couplet :

     Bm                   F#m
e ||--------------------|-----------------------||
B ||--------------------|-----------------------||
G ||--------------------|-----------------------|| x4
D ||--------------------|-----------------------||
A ||-2------------------|-0---------------------||
E ||--------------------|-----------------------||

    D                       G                   Fm#                    A
e |-----------------------|-------------------|----------------------|-------------------|
B |-----------------------|-------------------|----------------------|-------------------|
G |-----------------------|-------------------|----------------------|-------------------|
D |-----------------------|-------------------|----------------------|-------------------|
A |-----------------------|-------------------|-9--------------------|-------------------|
E |-10--------------------|-3-----------------|----------------------|-5-----------------|

    Bm                   F#m                     Bm                   F#m
e |--------------------|-----------------------|--------------------|-----------------------|
B |------3----t-----3--|------10----t------10--|------3----t-----3--|------10----t------10--|
G |------4----t-----4--|------11----t------11--|------4----t-----4--|------11----t------11--|
D |-----------t--4--->-|------------t--11----<-|-----------t--4--->-|------------t--11----<-|
A |-2---------t--------|-0----------t----------|-2---------t--------|-0----------t----------|
E |--------------------|-----------------------|--------------------|-----------------------|

     Bm                   F#m
e ||--------------------|-----------------------||
B ||------3----t-----3--|------10----t------10--||
G ||------4----t-----4--|------11----t------11--|| x4
D ||-----------t--4--->-|------------t--11----<-||
A ||-2---------t--------|-0----------t----------||
E ||--------------------|-----------------------||

    D                       G                   F#m                    A
e |-----------------------|-------------------|----------------------|-------------------|
B |-------10----t------10-|------3----t-----3-|------10----t------10-|------5----t-----5-|
G |-------11----t------11-|------4----t-----4-|------11----t------11-|------6----t-----6-|
D |-------------t---------|-----------t-------|------------t--11-----|-----------t-------|
A |-------------t--12-----|-----------t--5----|-9----------t---------|-----------t--7----|
E |-10--------------------|-3-----------------|----------------------|-5-----------------|

    Bm                   F#m                     Bm                   F#m                  Bm
e |--------------------|-----------------------|--------------------|-------------0--x-x-x---|
B |------3----t-----3--|------10----t------10--|------3----t-----3--|------10-----10-x-x-x---|
G |------4----t-----4--|------11----t------11--|------4----t-----4--|------11-----11-x-x-x---|
D |-----------t--4--->-|------------t--11----<-|-----------t--4--->-|-------------0--x-x-x-2-|
A |-2---------t--------|-0----------t----------|-2---------t--------|-0--------------x-x-x-2-|
E |--------------------|-----------------------|--------------------|----------------x-x-x-2-|

    Bm                 A                  Bm                 A
e |------2-x-x-2-x---|------5-x-x-5-x---|------2-x-x-2-x---|------5-x-x-5-x---|
B |------3-x-x-3-x---|------5-x-x-5-x---|------3-x-x-3-x---|------5-x-x-5-x---|
G |------4-x-x-4-x---|------6-x-x-6-x---|------4-x-x-4-x---|------6-x-x-6-x---|
D |-2^4--4-x-x-4-x-5-|-5^7--7-x-x-7-x-2-|-2^4--4-x-x-4-x-5-|-5^7--7-x-x-7-x-2-|
A |-2----2-x-x-2-x-5-|-5^7--7-x-x-7-x-2-|-2----2-x-x-2-x-5-|-5^7--7-x-x-7-x-2-|
E |-2----2-x-x-2-x-5-|-5----5-x-x-5-x-2-|-2----2-x-x-2-x-5-|-5----5-x-x-5-x-2-|

    Bm                 A                  Bm                 A
e |------2-x-x-2-x---|------5-x-x-5-x---|------2-x-x-2-x---|------5-x-x-5-x---|
B |------3-x-x-3-x---|------5-x-x-5-x---|------3-x-x-3-x---|------5-x-x-5-x---|
G |------4-x-x-4-x---|------6-x-x-6-x---|------4-x-x-4-x---|------6-x-x-6-x---|
D |-2^4--4-x-x-4-x-5-|-5^7--7-x-x-7-x-2-|-2^4--4-x-x-4-x-5-|-5^7--7-x-x-7-x-7-|
A |-2----2-x-x-2-x-5-|-5^7--7-x-x-7-x-2-|-2----2-x-x-2-x-5-|-5^7--7-x-x-7-x-7-|
E |-2----2-x-x-2-x-5-|-5----5-x-x-5-x-2-|-2----2-x-x-2-x-5-|-5----5-x-x-5-x-7-|

Dernier refrain :

     Em                 G                   D                      A
e ||------7-x-x-7-x---|------3-x-x-3-x----|--------10-x-x-10-x---|------5-x-x-5-x---||
B ||------8-x-x-8-x---|------3-x-x-3-x----|--------10-x-x-10-x---|------5-x-x-5-x---||
G ||------9-x-x-9-x---|------4-x-x-4-x----|--------11-x-x-11-x---|------6-x-x-6-x---|| (x2)
D ||-7^9--9-x-x-9-x-3-|-3^5--5-x-x-5-x-10-|-10^12--12-x-x-12-x-5-|-5^7--7-x-x-7-x-7-||
A ||-7----7-x-x-7-x-3-|-3^5--5-x-x-5-x-10-|-10^12--12-x-x-12-x-5-|-5^7--7-x-x-7-x-7-||
E ||-7----7-x-x-7-x-3-|-3----3-x-x-3-x-10-|-10-----10-x-x-10-x-5-|-5----5-x-x-5-x-7-||

    Em                 G                   D                      A                Gm
e |------7-x-x-7-x---|------3-x-x-3-x----|--------10-x-x-10-x---|------5-x-x-5-x------|
B |------8-x-x-8-x---|------3-x-x-3-x----|--------10-x-x-10-x---|------5-x-x-5-x------|
G |------9-x-x-9-x---|------4-x-x-4-x----|--------11-x-x-11-x---|------6-x-x-6-x------|
D |-7^9--9-x-x-9-x-3-|-3^5--5-x-x-5-x-10-|-10^12--12-x-x-12-x-5-|-5^7--7-x-x-7-x-7-10-|
A |-7----7-x-x-7-x-3-|-3^5--5-x-x-5-x-10-|-10^12--12-x-x-12-x-5-|-5^7--7-x-x-7-x-7-10-|
E |-7----7-x-x-7-x-3-|-3----3-x-x-3-x-10-|-10-----10-x-x-10-x-5-|-5----5-x-x-5-x-7-10-|

    Gm
e |--------10---------x-x-x-|
B |--------11---------x-x-x-|
G |--------12---------x-x-x-|
D |-10^12--12---------x-x-x-|
A |-10-----10---------x-x-x-|
E |-10-----10---------x-x-x-|

Fin :

    Bm                   F#m                     Bm                   F#m
e |--------------------|-----------------------|--------------------|-----------------------||
B |------3----t-----3--|------10----t------10--|------3----t-----3--|------10----t------10--||
G |------4----t-----4--|------11----t------11--|------4----t-----4--|------11----t------11--||
D |-----------t--4--->-|------------t--11----<-|-----------t--4--->-|------------t--11----<-||
A |-2---------t--------|-0----------t----------|-2---------t--------|-0----------t----------||
E |--------------------|-----------------------|--------------------|-----------------------||
    Bm                   F#m                     Bm
e |--------------------|-----------------------|--------------------||
B |------3----t-----3--|------10----t------10--|--------------------||
G |------4----t-----4--|------11----t------11--|--------------------||
D |-----------t--4--->-|------------t--11----<-|--------------------||
A |-2---------t--------|-0----------t----------|-2------------------||
E |--------------------|-----------------------|--------------------||



Paroles

Disons, que je la connais depuis que j’ai 6 ans
Que je n’en suis parti qu’après mes 18 ans
Disons, que si j’y suis repassé tout l’temps
J’en ai aussi profité avec mes enfants

Disons, que je marche, je monte et je descends
Entre mes impressions d’enfance, et mes souv’nirs d’adolescent
Disons, que c’est une jolie matinée de printemps
Et qu’il faudra bien que je parte forcément

    Disons
    Que mes parents ont toutes leurs bonnes raisons
    Disons
    Qu’ils ont vendu ma maison

Disons, que cette journée est la dernière
Que je ne sais pas trop ce que je vais en faire
Disons, que si j’ai prévu de la passer toute entière
Ce n’est pas pour le peu qu’il me reste à reprendre mes affaires

Disons, que je me perds dans les courants d’air
Que je trébuche sur des tas de poussière
Disons, que c’est une froide après-midi d’hiver
Et que je brûle des buches pour réchauffer la pierre

    Disons
    Que mes parents ont toutes leurs bonnes raisons
    Disons
    Qu’ils ont vendu ma maison

Disons, que les vinyles crépitent encore sur l’électrophone
Mais que ce n’est plus la vieille sonn’rie du téléphone
Disons, que c’est une douce soirée d’automne
Est-ce que c’est moi ou le chat qui ronronne

Disons, que la vue de ma chambre n’a pas changé
Que dans le jardin, tous les arbres ont bien poussé
Disons, que c’est une chaude nuit d’été
Et qu’il faudra bien que je finisse par m’en aller, me coucher

    Disons
    Que mes parents ont toutes leurs bonnes raisons, disons
    Disons
    Que mes parents ont toutes leurs bonnes raisons, disons, disons, disons,

    Disons
    Que mes parents ont toutes leurs bonnes raisons
    Disons

    Qu’ils ont vendu ma maison