Tabsvolo.net - Tablature : C'est quoi le nom


 Les tablatures : 68

Chanson française (2017)

Sans rire (2013)

C'est pas tout ça... (2010)

En attendant (2009)

Bref... Septembre 2008

  • Ma p'tite chanson
  • J'espère...
  • Bref

Jours heureux (2007)

Blancs Manteaux à Volo (2006)

Bien Zarbos (2004)

Tablature : C'est quoi le nom

Télécharger la version imprimable



Pas d'extrait pour le moment...


Légende :
= : Slide vers le haut du manche
^ : Pull-off ou Pull-on

Intro :

     Variations sur Am
e ||-----------------|-----------------|-----------------|-----------------||
B ||-------3^1-------|-------1-------0-|-------0---------|-------0---------||
G ||-----2---2-----2-|-----2---2-------|-----2---2-----2-|-----2---2-----2-|| (x2)
D ||---2-------2-----|---2-------2-----|---2-------2-----|---2-------2-----||
A ||-0-----------0---|-0-----------0---|-0-----------0---|-0-----------0---||
E ||-----------------|-----------------|-----------------|-----------------||

Couplets et refrains à la suite :

     Am                E sus4            Dm                F        G
e ||-----------------|-----------------|-----------------|----------------||
B ||-------1---------|-------0---------|-------6---------|----------------||
G ||-----2---2-----2-|-----2---0-------|-----7---7-----0-|-----2--------4-|| (x7)
D ||---2-------2-----|---2-------2---2-|---7-------7-----|---3--------5---||
A ||-0-----------0---|-----------------|-5---------------|----------------||
E ||-----------------|-0-----------0---|-------------5---|-1--------3-----||

    Am                E sus4            Dm                F     G
e |-----------------|-----------------|------------5-|----1-----3--0-|
B |-------1---------|-------0---------|------------6-|----1-----3--0-|
G |-----2---2-----2-|-----2---0-------|------------7-|----2-----4--0-|
D |---2-------2-----|---2-------2---2-|------------7-|----3-----5----|
A |-0-----------0---|-----------------|-5----------5-|-2--3--2--5----|
E |-----------------|-0-----------0---|--------------|-0--1--0--3----|

     Am              E sus4          Dm            F     G
e ||-0-0----0--0-0-|----0----0-0-0-|-------5=--|---1-----3--0-||
B ||-1-1----1--1-1-|----0----0-0-0-|-------6=--|---1-----3--0-||
G ||-2-2----2--2-2-|----2----2-2-2-|-------7=--|---2-----4--0-|| (x7)
D ||-2-2----2--2-2-|-2--2----2-2-2-|-7--7--7=--|---3-----5----||
A ||-0-0----0--0-0-|-2--2----2-2-2-|-5--5--5---|-2-3--2--5----||
E ||---------------|-0-------------|-5--5------|-0-1--0--3----||

    Am              E sus4          Dm           F        G
e |-0-0----0--0-0-|----0----0-0-0-|-------5-5-|----------------|
B |-1-1----1--1-1-|----0----0-0-0-|-------6-6-|----------------|
G |-2-2----2--2-2-|----2----2-2-2-|-------7-7-|-----2--------4-|
D |-2-2----2--2-2-|-2--2----2-2-2-|-7-----7-7-|---3--------5---|
A |-0-0----0--0-0-|-2--2----2-2-2-|-5-----5-5-|----------------|
E |---------------|-0-------------|-5---------|-1--------3-----|

     Am                E sus4            Dm                F        G
e ||-----------------|-----------------|-----------------|----------------||
B ||-------1---------|-------0---------|-------6---------|----------------||
G ||-----2---2-----2-|-----2---0-------|-----7---7-----0-|-----2--------4-|| (x3)
D ||---2-------2-----|---2-------2---2-|---7-------7-----|---3--------5---||
A ||-0-----------0---|-----------------|-5---------------|----------------||
E ||-----------------|-0-----------0---|-------------5---|-1--------3-----||

    Am                E sus4            Dm                F     G
e |-----------------|-----------------|------------5-|----1-----3--0-|
B |-------1---------|-------0---------|------------6-|----1-----3--0-|
G |-----2---2-----2-|-----2---0-------|------------7-|----2-----4--0-|
D |---2-------2-----|---2-------2---2-|------------7-|----3-----5----|
A |-0-----------0---|-----------------|-5----------5-|-2--3--2--5----|
E |-----------------|-0-----------0---|--------------|-0--1--0--3----|

     Am              E sus4          Dm            F     G
e ||-0-0----0--0-0-|----0----0-0-0-|-------5=--|---1-----3--0-||
B ||-1-1----1--1-1-|----0----0-0-0-|-------6=--|---1-----3--0-||
G ||-2-2----2--2-2-|----2----2-2-2-|-------7=--|---2-----4--0-|| (x3)
D ||-2-2----2--2-2-|-2--2----2-2-2-|-7--7--7=--|---3-----5----||
A ||-0-0----0--0-0-|-2--2----2-2-2-|-5--5--5---|-2-3--2--5----||
E ||---------------|-0-------------|-5--5------|-0-1--0--3----||

    Am              E sus4          Dm           F        G
e |-0-0----0--0-0-|----0----0-0-0-|-5----------|----------------|
B |-1-1----1--1-1-|----0----0-0-0-|-6----------|----------------|
G |-2-2----2--2-2-|----2----2-2-2-|-7----------|-----2--------4-|
D |-2-2----2--2-2-|-2--2----2-2-2-|-7----------|---3--------5---|
A |-0-0----0--0-0-|-2--2----2-2-2-|-5------x---|----------------|
E |---------------|-0-------------|-5------10=-|-1--------3-----|

    Am                E sus4            Dm                F        G
e |-----------------|-----------------|-----------------|----------------|
B |-------1---------|-------0---------|-------6---------|----------------|
G |-----2---2-----2-|-----2---0-------|-----7---7-----0-|-----2--------4-|
D |---2-------2-----|---2-------2---2-|---7-------7-----|---3--------5---|
A |-0-----------0---|-----------------|-5---------------|----------------|
E |-----------------|-0-----------0---|-------------5---|-1--------3-----|


Fin :

     Variations sur Am
e ||-----------------|-----------------|-----------------|-----------------||
B ||-------3^1-------|-------1-------0-|-------0---------|-------0---------||
G ||-----2---2-----2-|-----2---2-------|-----2---2-----2-|-----2---2-----2-|| (x2)
D ||---2-------2-----|---2-------2-----|---2-------2-----|---2-------2-----||
A ||-0-----------0---|-0-----------0---|-0-----------0---|-0-----------0---||
E ||-----------------|-----------------|-----------------|-----------------||

    A
e |-----------||
B |-----------||
G |-----------||
D |-----------||
A |-0---------||
E |-----------||


Paroles


Dans les transports en commun
Une femme et ses deux gamins
S'assoient juste en face
De moi y'a qu'une place
Le fils aîné reste debout
La fille, sur les genoux
De sa mère, la peau sur les os
Y'a pas qu'elle dans l'métro

C'est quoi le nom de cette famille ?
Une maman, un garçon, une fille
Dans le wagon depuis Bastille
Où ils s'en vont ?
C'est quoi le nom de cette famille ?
Une maman, un garçon, une fille
Dans le wagon depuis Bastille

Le fils aîné commence à foutre un sacré bordel
Il fait pleurer sa sœur
Il se moque d'elle
On dirait qu'elle en a peur
Sa mère s'interpose
Ou du moins elle essaye
De lui dire quelque chose
Mais comme elle bégaye
Le fils aîné la coupe : "De quoi tu m'causes ?"

C'est quoi le nom de cette famille ?
Une maman, un garçon, une fille
Dans le wagon depuis Bastille
Où ils s'en vont ?
C'est quoi le nom de cette famille ?
Une maman, un garçon, une fille
Dans le wagon depuis Bastille

Ca a duré quatre cinq stations
A la sixième ils sont sortis
Tout entendu d'leur discussion
Sans avoir rien compris
Ils nous ont quittés à Nation
Et devant la banquette vide
Je manque de concentration
La tête dans mon livre

C'est quoi le nom de cette famille ?
Une maman, un garçon, une fille
Dans le wagon depuis Bastille
Où ils s'en vont ?
C'est quoi le nom de cette famille ?
Une maman, un garçon, une fille
Dans le wagon depuis Bastille
J'ai pas de nom pour ma chanson...