Tabsvolo.net - Tablature : Évidence


 Les tablatures : 68

Chanson française (2017)

Sans rire (2013)

C'est pas tout ça... (2010)

En attendant (2009)

Bref... Septembre 2008

  • Ma p'tite chanson
  • J'espère...
  • Bref

Jours heureux (2007)

Blancs Manteaux à Volo (2006)

Bien Zarbos (2004)

Tablature : Évidence

Rev. 02 | 08-07-2011

Partager cette tablature

Télécharger la version imprimable
Télécharger la tablature guitare de Hugues Barbet






Pas d'extrait pour le moment...

Intro :
    F                 E                 Am                G
e |-----------------|-----------------|-----------------|-----------------|
B |---1---1---1---0-|---0---0---0---0-|---1---1---1---0-|---0---0---0---0-|
G |---2---2---2---0-|---1---1---1---0-|---2---2---2---0-|---0---0---0---0-|
D |-----------------|---------2-------|-----2-------2---|---------0-------|
A |-----3-------3---|-----2-------2---|-0-------0-------|-----2-------2---|
E |-1-------1-------|-0---------------|-----------------|-3---------------|

    F                 E                 Dm                E
e |-----------------|-----------------|-----------------|-----------------|
B |---1---1---1---0-|---0---0---0---0-|---6---6---6---0-|---0---0---0---0-|
G |---2---2---2---0-|---1---1---1---0-|---7---7---7---0-|---1---1---1---0-|
D |-----------------|---------2-------|-----7-------7---|---------2-------|
A |-----3-------3---|-----2-------2---|-5-------5-------|-----2-------2---|
E |-1-------1-------|-0---------------|-----------------|-0---------------|


    Am                F                 C                 G
e ||-----------------|-----------------|-----------------|-----------------||
B ||---1---0---1---0-|---1---1---1---0-|---1---1---1---0-|---0---0---0---0-||
G ||---2---2---2---0-|---2---2---2---0-|---0---0---0---0-|---0---0---0---0-|| (x2)
D ||-----2-------2---|---------3-------|-----2-------2---|---------0-------||
A ||-0-------0-------|-----3-------3---|-3-------3-------|-----2-------2---||
E ||-----------------|-1---------------|-----------------|-3---------------||


Couplet 1,2,3 et jusqu'à la fin :
    Am                F                 C                 G
e ||-----------------|-----------------|-----------------|-----------------||
B ||---1---0---1---0-|---1---1---1---0-|---1---1---1---0-|---0---0---0---0-||
G ||---2---2---2---0-|---2---2---2---0-|---0---0---0---0-|---0---0---0---0-|| (x4)
D ||-----2-------2---|---------3-------|-----2-------2---|---------0-------||
A ||-0-------0-------|-----3-------3---|-3-------3-------|-----2-------2---||
E ||-----------------|-1---------------|-----------------|-3---------------||


Refrains :
    F                 E                 Am                G
e |-----------------|-----------------|-----------------|-----------------|
B |---1---1---1---0-|---0---0---0---0-|---1---1---1---0-|---0---0---0---0-|
G |---2---2---2---0-|---1---1---1---0-|---2---2---2---0-|---0---0---0---0-|
D |-----------------|---------2-------|-----2-------2---|---------0-------|
A |-----3-------3---|-----2-------2---|-0-------0-------|-----2-------2---|
E |-1-------1-------|-0---------------|-----------------|-3---------------|

    F                 E                 Dm                E
e |-----------------|-----------------|-----------------|-----------------|
B |---1---1---1---0-|---0---0---0---0-|---6---6---6---0-|---0---0---0---0-|
G |---2---2---2---0-|---1---1---1---0-|---7---7---7---0-|---1---1---1---0-| deuxième
D |-----------------|---------2-------|-----7-------7---|---------2-------| refrain : x2
A |-----3-------3---|-----2-------2---|-5-------5-------|-----2-------2---|
E |-1-------1-------|-0---------------|-----------------|-0---------------|


Fin :
    Am                Am                Am                Am
e |-----------------|-----------------|-----------------|-------------0-------||
B |---1---1---1---1-|---1---1---1---1-|---1---1---1---1-|------------1--------||
G |---2---2---2---2-|---2---2---2---2-|---2---2---2---2-|-----------2---------||
D |-----2-------2---|-----2-------2---|-----2-------2---|-----2----2----------||
A |-0-------0-------|-0-------0-------|-0-------0-------|-0-------0-----------||
E |-----------------|-----------------|-----------------|---------------------||



Paroles


Vous êtes tout sourire vous êtes tranquillement
Vous êtes bien-portants
Vous êtes sans courir vous êtes et vous allez
Vous êtes en bonne santé
Vous êtes tout avenir vous êtes tout d'suite et maint'nant
Vous êtes bien-portants
Vous êtes sans réfléchir vous n'êtes rien à penser
Vous êtes en bonne santé

De tout évidence je n'ai pas cette chance et si j'en crois ce qu'il me reste
En toutes circonstances je vous jalouse en silence et parfois…

Vous êtes tout nuageux vous êtes mauvais temps
Vous êtes bien-portants
Vous êtes sans enjeux vous êtes sans déranger
Vous êtes en bonne santé
Vous êtes tout à deux vous êtes et vos enfants
Vous êtes bien-portants
Vous êtes sans le p'tit peu vous êtes et pas assez
Vous êtes en bonne santé

De tout évidence je n'ai pas cette chance et si j'en crois ce qu'il me reste
En tout circonstance je vous jalouse en silence et parfois…

De tout évidence je n'ai pas cette chance et si j'en crois ce qu'il me reste
En tout circonstance je vous jalouse en silence et parfois… Je vous déteste

Vous êtes à boire, à manger, discutant, profitant
Vous êtes à voir, à chanter, l'amour et la fête
Vous à êtes croire et vivants vous tous en même temps
En fait, toutes mes histoires, sans le savoir, imaginez

Vous êtes à boire, à manger, discutant, profitant
Vous êtes à voir, à chanter, l'amour et la fête
Vous êtes à croire et vivants vous tous en même temps
En fait, toutes mes histoires inventées, imaginez
Vous êtes…

De toute évidence je n'ai pas cette chance

De toute évidence je n'ai pas cette chance