Tabsvolo.net - Tablature : En vérité


 Les tablatures : 76

17 ans (En acoustique) (2022)

Avec son frère (2020)

Chanson française (2017)

Sans rire (2013)

C'est pas tout ça... (2010)

En attendant (2009)

Bref... Septembre 2008

  • Ma p'tite chanson
  • J'espère...
  • Bref

Jours heureux (2007)

Blancs Manteaux à Volo (2006)

Bien Zarbos (2004)

Tablature : En vérité

06-03-2022

Partager cette tablature

Télécharger la version imprimable 


Ecouter un extrait composé de différentes parties de la tablature :



Légende :
||------|| (xN) : Jouer N fois la partie entre les ||


Capo 6


Intro :

     Em (Bbm)        G (Db)                             Am (Em)         D7 s4 (Ab7 s4)     D7 (Ab7)
e ||--------------|------------------|--------------0-|--------------|--------------3---|--------------0-||
B ||----------0---|--------------0---|-----------0----|----------1---|-----------1------|-----------1----||
G ||-------0------|-----------0------|--0-----0-------|-------2------|--0-----2---------|--2-----2-------|| (x2)
D ||----2---------|--0-----0---------|-----0----------|----2---------|-----0------------|-----0----------||
A ||--------------|------------------|----------------|-0------------|------------------|----------------||
E ||-0------------|-----3------------|----------------|--------------|------------------|----------------||


Couplets :

     Em (Bbm)        G (Db)                             Am (Em)         D7 s4 (Ab7 s4)     D7 (Ab7)
e ||--------------|------------------|--------------0-|--------------|--------------3---|--------------0-||
B ||----------0---|--------------0---|-----------0----|----------1---|-----------1------|-----------1----||
G ||-------0------|-----------0------|--0-----0-------|-------2------|--0-----2---------|--2-----2-------|| (x4)
D ||----2---------|--0-----0---------|-----0----------|----2---------|-----0------------|-----0----------||
A ||--------------|------------------|----------------|-0------------|------------------|----------------||
E ||-0------------|-----3------------|----------------|--------------|------------------|----------------||


Refrain 1 :

     C (Gb)          Am (Em)            Am s4 (Em s4)   Em (Bbm)        G (Db)
e ||--------------|------------------|--------------0-|--------------|------------------|--------------0-||
B ||----------1---|--------------1---|-----------1----|----------0---|--------------0---|-----------0----||
G ||-------0------|-----------2------|--2-----2-------|-------0------|-----------0------|--0-----0-------|| (x2)
D ||----2---------|--0-----2---------|-----0----------|----2---------|--0-----0---------|-----0----------||
A ||-3------------|-----0------------|----------------|--------------|------------------|----------------||
E ||--------------|------------------|----------------|-0------------|-----3------------|----------------||

    Am (Em)         B7 (F7)
e |--------------|---------------|--------------0-|
B |----------1---|---------------|-----------0----|
G |-------2------|-----------2---|--2-----2-------|
D |----2---------|--0-----1------|-----1----------|
A |-0------------|-----2---------|----------------|
E |--------------|---------------|----------------|

{ 2ème couplet }

Refrain 2 :

     C (Gb)          Am (Em)            Am s4 (Em s4)   Em (Bbm)        G (Db)
e ||--------------|------------------|--------------0-|--------------|------------------|--------------0-||
B ||----------1---|--------------1---|-----------1----|----------0---|--------------0---|-----------0----||
G ||-------0------|-----------2------|--2-----2-------|-------0------|-----------0------|--0-----0-------|| (x3)
D ||----2---------|--0-----2---------|-----0----------|----2---------|--0-----0---------|-----0----------||
A ||-3------------|-----0------------|----------------|--------------|------------------|----------------||
E ||--------------|------------------|----------------|-0------------|-----3------------|----------------||

    Am (Em)         B7 (F7)
e |--------------|---------------|--------------0-|
B |----------1---|---------------|-----------0----|
G |-------2------|-----------2---|--2-----2-------|
D |----2---------|--0-----1------|-----1----------|
A |-0------------|-----2---------|----------------|
E |--------------|---------------|----------------|

     Em (Bbm)        G (Db)                             Am (Em)         D7 s4 (Ab7 s4)     D7 (Ab7)
e ||--------------|------------------|--------------0-|--------------|--------------3---|--------------0-||
B ||----------0---|--------------0---|-----------0----|----------1---|-----------1------|-----------1----||
G ||-------0------|-----------0------|--0-----0-------|-------2------|--0-----2---------|--2-----2-------|| (x2)
D ||----2---------|--0-----0---------|-----0----------|----2---------|-----0------------|-----0----------||
A ||--------------|------------------|----------------|-0------------|------------------|----------------||
E ||-0------------|-----3------------|----------------|--------------|------------------|----------------||

{ 3ème couplet }

Refrain 3 :

     C (Gb)          Am (Em)            Am s4 (Em s4)   Em (Bbm)        G (Db)
e ||--------------|------------------|--------------0-|--------------|------------------|--------------0-||
B ||----------1---|--------------1---|-----------1----|----------0---|--------------0---|-----------0----||
G ||-------0------|-----------2------|--2-----2-------|-------0------|-----------0------|--0-----0-------|| (x3)
D ||----2---------|--0-----2---------|-----0----------|----2---------|--0-----0---------|-----0----------||
A ||-3------------|-----0------------|----------------|--------------|------------------|----------------||
E ||--------------|------------------|----------------|-0------------|-----3------------|----------------||

    Am (Em)         B7 (F7)
e |--------------|---------------|--------------0-|
B |----------1---|---------------|-----------0----|
G |-------2------|-----------2---|--2-----2-------|
D |----2---------|--0-----1------|-----1----------|
A |-0------------|-----2---------|----------------|
E |--------------|---------------|----------------|


Pont :

     Em (Bbm)                                           D (Am)
e ||--------------|--------------0---|----------------|----------2---|--------------2---|--------------0-|
B ||----------8---|-----------8------|--------------0-|-------3------|-----------3------|-----------3----|
G ||-------9------|--9-----9---------|-----------9----|----2---------|--2-----2---------|--2-----2-------|
D ||----9---------|-----9------------|--9-----9-------|-0------------|-----0------------|-----0----------|
A ||-7------------|------------------|-----7----------|--------------|------------------|----------------|
E ||--------------|------------------|----------------|--------------|------------------|----------------|

    Am (Em)                                            B7 (F7)
e |--------------|--------------0---|----------------|--------------|--------------0---|----------------||
B |----------1---|-----------1------|--------------0-|----------0---|-----------0------|--------------0-||
G |-------2------|--2-----2---------|--2--------2----|-------2------|--2-----2---------|--2--------2----|| (x2)
D |----2---------|-----2------------|--------2-------|----1---------|-----1------------|--------1-------||
A |-0------------|------------------|-----0----------|-2------------|------------------|-----2----------||
E |--------------|------------------|----------------|--------------|------------------|----------------||

     Em (Bbm)        G (Db)                             Am (Em)         D7 s4 (Ab7 s4)     D7 (Ab7)
e ||--------------|------------------|--------------0-|--------------|--------------3---|--------------0-||
B ||----------0---|--------------0---|-----------0----|----------1---|-----------1------|-----------1----||
G ||-------0------|-----------0------|--0-----0-------|-------2------|--0-----2---------|--2-----2-------|| (x4)
D ||----2---------|--0-----0---------|-----0----------|----2---------|-----0------------|-----0----------||
A ||--------------|------------------|----------------|-0------------|------------------|----------------||
E ||-0------------|-----3------------|----------------|--------------|------------------|----------------||

Fin :

     C (Gb)          Am (Em)            Am s4 (Em s4)   Em (Bbm)        G (Db)
e ||--------------|------------------|--------------0-|--------------|------------------|--------------0-||
B ||----------1---|--------------1---|-----------1----|----------0---|--------------0---|-----------0----||
G ||-------0------|-----------2------|--2-----2-------|-------0------|-----------0------|--0-----0-------|| (x3)
D ||----2---------|--0-----2---------|-----0----------|----2---------|--0-----0---------|-----0----------||
A ||-3------------|-----0------------|----------------|--------------|------------------|----------------||
E ||--------------|------------------|----------------|-0------------|-----3------------|----------------||

    Am (Em)         B7 (F7)                         Em (Bbm)
e |--------------|---------------|--------------0-|-------------------||
B |----------1---|---------------|-----------0----|-------------------||
G |-------2------|-----------2---|--2-----2-------|-------------------||
D |----2---------|--0-----1------|-----1----------|-------------------||
A |-0------------|-----2---------|----------------|-------------------||
E |--------------|---------------|----------------|-0-----------------||



Paroles

Si je te disais que je n'ai pas pleuré
Je me vant'rais et tu te moqu'rais de moi
Que veux-tu que j'y fasses en vérité ?
Plus je vais, plus je m'attache à toi
Si je te disais que j'ai pu t'oublier
Je mentirais et tu n'me croirais pas
Que veux-tu que j'y fasses en vérité ?
Plus j'essaye et moins j'y crois

Je sais que je t'aime et c'est tout
Je sais que je t'aime et c'est tout
Je sais que je t'aime et c'est tout

Si tu me disais de ne plus t'espérer
À présent que tu n'as plus rien à m'offrir
Que veux-tu que j'y fasses en vérité ?
Si j'arrive à ne pas m'en souv'nir
Si tu me disais de ne plus y penser
Et même si je voulais, pour te faire plaisir
Que veux-tu que j'y fasses en vérité ?
Je ne sais plus si je marche ou si je respire

Je sais que je t'aime et c'est tout
Je sais que je t'aime et c'est tout
Je sais que je t'aime et c'est tout
Je sais que je t'aime et c'est tout

Si l'on se disait de ne rien regretter
Et même si j'ai pu me tromper quelques fois
Que veux-tu que j'y fasses en vérité ?
Si je sais que je ne me trompe pas
Si l'on se disait de tout se pardonner
Et même si je pouvais, pour me le faire comprendre
Que veux-tu que j'y fasses en vérité ?
Je n'ai personne pour m'entendre

Je sais que je t'aime et c'est tout
Je sais que je t'aime et c'est tout
Je sais que je t'aime et c'est tout
Je sais que je t'aime et c'est tout

Tu m'as dit de partir et je suis parti
Tu m'as dit de vivre et je vis
Mais ce n'est pas la vie
C'est le bruit de la vie
Tu m'as dit de partir et je suis parti
Tu m'as dit de vivre et je vis
Mais ce n'est pas la vie
C'est le bruit de la vie

Je sais que je t'aime et c'est tout
Je sais que je t'aime et c'est tout
Je sais que je t'aime et c'est tout

Je sais que je t'aime et c'est tout
Je sais que je t'aime et c'est tout...