Tabsvolo.net - Tablature : Une ballade


 Les tablatures : 68

Chanson française (2017)

Sans rire (2013)

C'est pas tout ça... (2010)

En attendant (2009)

Bref... Septembre 2008

  • Ma p'tite chanson
  • J'espère...
  • Bref

Jours heureux (2007)

Blancs Manteaux à Volo (2006)

Bien Zarbos (2004)

Tablature : Une ballade

Télécharger la version imprimable
Je retravaille cette tablature car Olivier utilise un capo que je n'avais pas décelé à l'écoute...



Pas d'extrait pour le moment...


Intro, couplets, fin... :


e ||---------------------------10-|--------------------------------|
B ||-----------10----------10--10-|-------------10--------------12-|
G ||--------11---------11---------|---------11--------------11-----|
D ||----11---------11-------------|-----12--------------12---------|
A ||-9----------------------------|-----------------12-------------|
E ||------------------------------|-10-----------------------------|

e |--------------------------------|----------------------------||
B |-------------15--------------14-|------------9-------------9-||
G |---------14--------------14-----|--------10------------10----|| (en boucle)
D |-----14--------------14---------|----11------------11--------||
A |-12--------------12-------------|-8--------------------------||
E |--------------------------------|---------------9------------||

Paroles


Une ballade
Pour quand j’me sens pas capable
Une chanson pour dormir
Pour quand j’ai peur de mourir
Une mélodie
Pour pleurer si j’en ai envi
Un p’tit air qu’on fredonne
Et qu’on chante jamais à personne

Une ballade
Pour quand j’serai vieux et malade
Une chanson pour dormir
Pour partir sans rien sentir
Une mélodie
Pour aimer, pour aimer, pour aimer
Un p’tit air qu’on fredonne
Et qu’on aura chanté à personne

...