Tabsvolo.net - Tablature : La finale


 Les tablatures : 68

Chanson française (2017)

Sans rire (2013)

C'est pas tout ça... (2010)

En attendant (2009)

Bref... Septembre 2008

  • Ma p'tite chanson
  • J'espère...
  • Bref

Jours heureux (2007)

Blancs Manteaux à Volo (2006)

Bien Zarbos (2004)

Tablature : La finale

Télécharger la version imprimable



Ecouter un extrait composé de différentes parties de la tablature :



Intro :
     Dm            Edim          Gm                  A#
e ||-------------|-------------|-------------------|-------------|
B ||---6-6---6-6-|---8-8---8-8-|----11-11----11-11-|---6-6---6-6-|
G ||---7-7---7-7-|---9-9---9-9-|----12-12----12-12-|---7-7---7-7-|
D ||-------7-----|-------8-----|----------12-------|-------------|
A ||-5-----------|-7-----------|-10----------------|-------8-----|
E ||-------------|-------------|-------------------|-6-----------|

    Dm            Edim          Gm                  C
e |-------------|-------------|-------------------|--------8--8--|
B |---6-6---6-6-|---8-8---8-8-|----11-11----11-11-|--------8--8--|
G |---7-7---7-7-|---9-9---9-9-|----12-12----12-12-|--------9--9--|
D |-------7-----|-------8-----|----------12-------|--------10-10-|
A |-5-----------|-7-----------|-10----------------|--------10-10-|
E |-------------|-------------|-------------------|-8------8--8--|


Couplet 1 :
    Fm                 G#            A#m           C#      C
e |------------------|-------------|-------------|---------------|
B |---9--9-----9--9--|---4-4---4-4-|---2-2---2-2-|---9--9----8-8-|
G |---10-10----10-10-|---5-5---5-5-|---3-3---3-3-|---10-10---9-9-|
D |---------10-------|-------------|-------3-----|---------------|
A |-8----------------|-------6-----|-1-----------|---------------|
E |------------------|-4-----------|-------------|-9-------8-----|

    Fm                 G#            A#m           C#      C
e |------------------|-------------|-------------|---------------|
B |---9--9-----9--9--|---4-4---4-4-|---2-2---2-2-|---------------|
G |---10-10----10-10-|---5-5---5-5-|---3-3---3-3-|---------------|
D |---------10-------|-------------|-------3-----|---------------|
A |-8----------------|-------6-----|-1-----------|---------------|
E |------------------|-4-----------|-------------|-9-------8-----|

     Fm                 G#            A#m           C#      C
e ||------------------|-------------|-------------|---------------||
B ||---9--9-----9--9--|---4-4---4-4-|---2-2---2-2-|---9--9----8-8-||
G ||---10-10----10-10-|---5-5---5-5-|---3-3---3-3-|---10-10---9-9-|| (x2)
D ||---------10-------|-------------|-------3-----|---------------||
A ||-8----------------|-------6-----|-1-----------|---------------||
E ||------------------|-4-----------|-------------|-9-------8-----||


Refrain :
    Dm            Edim          Gm                  A#
e |-------------|-------------|-------------------|-------------|
B |---6-6---6-6-|---8-8---8-8-|----11-11----11-11-|---6-6---6-6-|
G |---7-7---7-7-|---9-9---9-9-|----12-12----12-12-|---7-7---7-7-|
D |-------7-----|-------8-----|----------12-------|-------------|
A |-5-----------|-7-----------|-10----------------|-------8-----|
E |-------------|-------------|-------------------|-6-----------|

    Dm            Edim          Gm                  C
e |-------------|-------------|-------------------|--------8--8--|
B |---6-6---6-6-|---8-8---8-8-|----11-11----11-11-|--------8--8--|
G |---7-7---7-7-|---9-9---9-9-|----12-12----12-12-|--------9--9--|
D |-------7-----|-------8-----|----------12-------|--------10-10-|
A |-5-----------|-7-----------|-10----------------|--------10-10-|
E |-------------|-------------|-------------------|-8------8--8--|


Couplet 2,3,4 : (parsemés de refrains...)
     Fm                 G#            A#m           C#      C
e ||------------------|-------------|-------------|---------------||
B ||---9--9-----9--9--|---4-4---4-4-|---2-2---2-2-|---9--9----8-8-||
G ||---10-10----10-10-|---5-5---5-5-|---3-3---3-3-|---10-10---9-9-|| (x4)
D ||---------10-------|-------------|-------3-----|---------------||
A ||-8----------------|-------6-----|-1-----------|---------------||
E ||------------------|-4-----------|-------------|-9-------8-----||


Dernier couplet et fin :
    Fm                 G#            A#m           C#      C
e |------------------|-------------|-------------|---------------|
B |---------9--------|-------4-----|-------2-----|---9-------8---|
G |---------10-------|-------5-----|-------3-----|---10------9---|
D |------------------|-------------|-------------|---------------|
A |-8----------------|-------------|-1-----------|---------------|
E |------------------|-4-----------|-------------|-9-------8-----|

    Fm                 G#            A#m           C#      C       Fm
e |------------------|-------------|-------------|---------------|---------||
B |---------9--------|-------4-----|-------2-----|---9-------8---|-9-------||
G |---------10-------|-------5-----|-------3-----|---10------9---|-10------||
D |------------------|-------------|-------------|---------------|---------||
A |-8----------------|-------------|-1-----------|---------------|-8-------||
E |------------------|-4-----------|-------------|-9-------8-----|---------||


Paroles


Je rentre du boulot
Pas envie d'réfléchir
Je branche le ventilo ça va me rafraîchir
J'attrape un surgelé
J'ouvre le micro-onde
J'allume la télé
Je tombe sur la coupe du monde
J'sais pas comment j'ai fait
Je n'dois pas être normal
Pour oublier qu'c'était
Ce soir la finale
Zizou, l'équipe de France
Et c'est la Marseillaise
Tout l'pays est en transe
Et moi je suis d'la baise

Refrain :

Parce que fatigué, besoin d'roupiller
Pas envie d'les entendre crier et
D'me faire réveiller par des
On a gagné !

Je connais le principe
Les règles du jeu
Si je n'achète jamais l'équipe
Gamin j'étais footeux
Les contrats, les transferts
J'connais pas tous les joueurs
C'est plutôt les affaires
Que je retiens par cœur
Les discours patriotes
Les commentaires chauvins
Les millionnaires en short
Qui écrivent des bouquins
Et viennent à la télé
Justifier leurs coups d'tête
Leurs matchs de charité
Leur départ à la r'traite

{Refrain}

Dans les tribunes VIP
On place les présidents
De clubs et de pays
Ou les deux en même temps
Les droits audiovisuels
Pour la planète entière
Les sponsors officiels
Et les brasseurs de bière
Plus que des dieux du stade
C'est des jeux vidéo
Des supers héros
Jusque sur mon pot d'moutarde
Ou sur mes bouteilles d'eau
Comme ce soir j'ai pas l'choix
Qu'ça m'fout un peu la haine
Ca me rendrait fou d'joie
Qu'ils aient tous de la peine

{Refrain}

Et ça tacle par derrière
Ca plonge dans la surface
Ca sort sur la civière
En f'sant la grosse grimace
Ca s'tire sur le maillot
Ca laisse trainer les crampons
Ca fait son gros fayot
Ca réclame un carton
Ca tombe comme des mouches
Ca conteste un coup-franc
Ca réclame la touche
Ca se rentre dedans
C'est musclé, c'est viril
Ca cherche le pénalty
C'est triché, c'est débile
On a tous le ralenti

Parce que fatigué, besoin d'roupiller
Pas envie d'les entendre crier et
D'me faire réveiller par des
Qui ne saute pas n'est pas Français !

Fini
La France a perdu
Je souris dans mon lit
Parce que dans ma rue
Y'a pas un bruit
Bonne nuit