Tabsvolo.net - Tablature : Petite tête


 Les tablatures : 68

Chanson française (2017)

Sans rire (2013)

C'est pas tout ça... (2010)

En attendant (2009)

Bref... Septembre 2008

  • Ma p'tite chanson
  • J'espère...
  • Bref

Jours heureux (2007)

Blancs Manteaux à Volo (2006)

Bien Zarbos (2004)

Tablature : Petite tête

22-11-2014

Partager cette tablature

Télécharger la version imprimable 


Ecouter un extrait composé de différentes parties de la tablature :



Légende :
||------|| (xN) : Jouer N fois la partie entre les ||
     Am (Bm) : Nom de l'accord par rapport au capo (Nom de l'accord joué)
                 ^ : Pull-off ou Pull-on (Ici : pull-on)

Aide et conseils :
Même principe que "Grand frère"


Capo 2

Intro :

     Am (Bm)                     C (D)                        G (A)                       Am (Bm)
e ||-----------0-|-----0-------|------------0-|-----0-------|-----------3-|-----3-------|-------------|-----0-----1-||
B ||-----1---1---|---1-------1-|-----1----1---|---1-------0-|-----0---0---|---0-------0-|-----1-----1-|---1---0^1---||
G ||---2---------|-2-------2---|---0----------|-0-------0---|---0---------|-0-------0---|---2-----2---|-0^2---------|| (x2)
D ||-------2-----|-------2-----|-------0^2----|-------2-----|-------0-----|-------0-----|-------0^2---|-------------||
A ||-0-----------|-------------|-3------------|-------------|-------------|-------------|-0-----------|-------------||
E ||-------------|-------------|--------------|-------------|-3-----------|-------------|-------------|-------------||

Couplets :

     Am (Bm)                     C (D)                        G (A)                       Am (Bm)
e ||-----------0-|-----0-------|------------0-|-----0-------|-----------3-|-----3-------|-----------0-|-----0-------||
B ||-----1---1---|---1-------1-|-----1----1---|---1-------0-|-----0---0---|---0-------0-|-----1---1---|---1-------1-||
G ||---2---------|-2-------2---|---0----------|-0-------0---|---0---------|-0-------0---|---2---------|-2-------2---|| (x2)
D ||-------2-----|-------2-----|-------0^2----|-------2-----|-------0-----|-------0-----|-------2-----|-------2-----||
A ||-0-----------|-------------|-3------------|-------------|-------------|-------------|-0-----------|-------------||
E ||-------------|-------------|--------------|-------------|-3-----------|-------------|-------------|-------------||

    Fm6 (Gm6)                   C (D)                        G (A)                       Am (Bm)
e |-----0-----0-|-----0-----0-|------------0-|-----0-------|-----------3-|-----3-------|-----------0-|-----0-------|
B |---1-----1---|---1-----1---|-----1----1---|---1-------0-|-----0---0---|---0-------0-|-----1---1---|---1-------1-|
G |-------2-----|-------2-----|---0----------|-0-------0---|---0---------|-0-------0---|---2---------|-2-------2---|
D |-3-----------|-3-----------|-------0^2----|-------2-----|-------0-----|-------0-----|-------2-----|-------2-----|
A |-------------|-------------|-3------------|-------------|-------------|-------------|-0-----------|-------------|
E |-------------|-------------|--------------|-------------|-3-----------|-------------|-------------|-------------|

Refrains 1 et 2 :

    Dm (Em)                     G (A)                       CM13 (DM13)                 E (F#)
e |-----------5-|-------------|-----------3-|-----3-------|-----------0-|-----0-------|-----------0-|-----0-------|
B |-----6---6---|-----6-----0-|-----0---0---|---0-------0-|-----0---0---|---0-------0-|-----0---0---|---0-------0-|
G |---7---------|---7-----7---|---0---------|-0-------0---|---2---------|-2-------2---|---1---------|-1-------1---|
D |-------7-----|-------7-----|-------0-----|-------0-----|-------------|-------3-----|-------2-----|-------2-----|
A |-5-----------|-5-----------|-------------|-------------|-------3-----|-------------|-2-----------|-------------|
E |-------------|-------------|-3-----------|-------------|-1-----------|-------------|-------------|-------------|

    Am (Bm)                     C (D)                        G (A)                       Am (Bm)
e |-----------0-|-----0-------|------------0-|-----0-------|-----------3-|-----3-------|-------------|-----0-----1-|
B |-----1---1---|---1-------1-|-----1----1---|---1-------0-|-----0---0---|---0-------0-|-----1-----1-|---1---0^1---|
G |---2---------|-2-------2---|---0----------|-0-------0---|---0---------|-0-------0---|---2-----2---|-0^2---------|
D |-------2-----|-------2-----|-------0^2----|-------2-----|-------0-----|-------0-----|-------0^2---|-------------|
A |-0-----------|-------------|-3------------|-------------|-------------|-------------|-0-----------|-------------|
E |-------------|-------------|--------------|-------------|-3-----------|-------------|-------------|-------------|

{ Couplet }

{ Refrain }

{ Couplet }

Dernier refrain :

    Dm (Em)                     G (A)                       CM13 (DM13)                 E (F#)
e |-----------5-|-------------|-----------3-|-----3-------|-----------0-|-----0-------|-----------0-|-----0-------|
B |-----6---6---|-----6-----0-|-----0---0---|---0-------0-|-----0---0---|---0-------0-|-----0---0---|---0-------0-|
G |---7---------|---7-----7---|---0---------|-0-------0---|---2---------|-2-------2---|---1---------|-1-------1---|
D |-------7-----|-------7-----|-------0-----|-------0-----|-------------|-------3-----|-------2-----|-------2-----|
A |-5-----------|-5-----------|-------------|-------------|-------3-----|-------------|-2-----------|-------------|
E |-------------|-------------|-3-----------|-------------|-1-----------|-------------|-------------|-------------|

    Am (Bm)                     C (D)                        G (A)                       Am (Bm)
e |-----------0-|-----0-------|------------0-|-----0-------|-----------3-|-----3-------|-----------0-|-----0-------|
B |-----1---1---|---1-------1-|-----1----1---|---1-------0-|-----0---0---|---0-------0-|-----1---1---|---1-------1-|
G |---2---------|-2-------2---|---0----------|-0-------0---|---0---------|-0-------0---|---2---------|-2-------2---|
D |-------2-----|-------2-----|-------0^2----|-------2-----|-------0-----|-------0-----|-------2-----|-------2-----|
A |-0-----------|-------------|-3------------|-------------|-------------|-------------|-0-----------|-------------|
E |-------------|-------------|--------------|-------------|-3-----------|-------------|-------------|-------------|

    Dm (Em)                     G (A)                       CM13 (DM13)                 E (F#)
e |-----------5-|-------------|-----------3-|-----3-------|-----------0-|-----0-------|-----------0-|-----0-------|
B |-----6---6---|-----6-----0-|-----0---0---|---0-------0-|-----0---0---|---0-------0-|-----0---0---|---0-------0-|
G |---7---------|---7-----7---|---0---------|-0-------0---|---2---------|-2-------2---|---1---------|-1-------1---|
D |-------7-----|-------7-----|-------0-----|-------0-----|-------------|-------3-----|-------2-----|-------2-----|
A |-5-----------|-5-----------|-------------|-------------|-------3-----|-------------|-2-----------|-------------|
E |-------------|-------------|-3-----------|-------------|-1-----------|-------------|-------------|-------------|

Fin :

    Am (Bm)                     C (D)                        G (A)                       Am (Bm)
e |-----------0-|-----0-------|------------0-|-----0-------|-----------3-|-----3-------|-------------|-----0-------||
B |-----1---1---|---1-------1-|-----1----1---|---1-------0-|-----0---0---|---0-------0-|-----1-----1-|---1---0^1---||
G |---2---------|-2-------2---|---0----------|-0-------0---|---0---------|-0-------0---|---2-----2---|-0^2---------||
D |-------2-----|-------2-----|-------0^2----|-------2-----|-------0-----|-------0-----|-------0^2---|-------------||
A |-0-----------|-------------|-3------------|-------------|-------------|-------------|-0-----------|-------------||
E |-------------|-------------|--------------|-------------|-3-----------|-------------|-------------|-------------||


Paroles

Le matin de lundi
Je fais le lait au micro-onde
Dehors c'est sous la pluie pour
Ta petite tête blonde
La moitié de 8H
Le compte à r'bourd en s'condes
Ton manteau est râleur sur ta
Petite tête blonde
Le nuit n'est pas finie
Que veux-tu qu'on réponde ?
A tout le corps à cri de ta
Petite tête blonde

L'hiver refait l'automne mais
Faut pas qu'on confonde
C'est moi qui me cramponne à ta
Petite tête blonde

La por'tière fait du bruit
Ta ceinture me gronde
L'embouteillage aussi et ta
Petite tête blonde
Sonner à l'interphone
Attendre qu'on nous réponde
Dire le nom que l'on donne à ta
Petite tête blonde
Bonjour et à ce soir
Quand les klaxons sondent
Le bout du boulevard pour ta
Petite tête blonde

L'hiver copie l'automne mais
Faut pas qu'on confonde
C'est moi qui me cramponne à ta
Petite tête blonde

Monter sur les trottoirs
A emmerder le monde
Et courir en retard vers ta
Petite tête blonde
Sans pouvoir comparer
A rien qui corresponde
Avant de retrouver ta
Petite tête blonde
J'accroche encore à mon coeur
Au sourire de Joconde
Mais j'n'ai que le bonheur de ta
Petite tête blonde

L'hiver joue à l'automne mais
Faut pas qu'on confonde
C'est moi qui me cramponne à ta
Petite tête blonde

L'hiver joue à l'automne mais
Faut pas qu'on confonde
C'est moi qui me cramponne à ta
Petite tête blonde