Tabsvolo.net - Tablature : Montréal


 Les tablatures : 68

Chanson française (2017)

Sans rire (2013)

C'est pas tout ça... (2010)

En attendant (2009)

Bref... Septembre 2008

  • Ma p'tite chanson
  • J'espère...
  • Bref

Jours heureux (2007)

Blancs Manteaux à Volo (2006)

Bien Zarbos (2004)

Tablature : Montréal

Télécharger la version imprimable



Pas d'extrait pour le moment...


Légende :
^ : Temps fort

Intro :

            Em Add9             C                   Em Add9
     ^ ^ ^  ^     ^        ^    ^     ^        ^    ^     ^        ^
e ||------|---(2)-2--2---2-2-|----(3)-3--3---3-3-|----(2)-2--2---2-2-|
B ||-0----|---(0)-0--0---0-0-|----(1)-1--1---1-1-|----(0)-0--0---0-0-|
G ||---2-0|---(0)-0--0---0-0-|----(0)-0--0---0-0-|----(0)-0--0---0-0-|
D ||------|----2--2--2---2-2-|-0---2--2--2---2-2-|-0---2--2--2---2-2-|
A ||------|---(2)-2--2---2-2-|--3-(3)-3--3---3-3-|----(2)-2--2---2-2-|
E ||-3-2--|-0-(0)-0--0---0-0-|----(0)-0--0---0-0-|--0-(0)-0--0---0-0-|

     C
     ^     ^      ^ ^
e |----(0)-0----|-------|
B |----(1)-1----|-0-----|
G |----(0)-0----|---2---|
D |-0---2--2----|-------|
A |--3-(3)-3----|-------|
E |----(0)-0----|-3-2---|

Couplet :

     Em Add9             C                   Em Add9             C
     ^     ^        ^    ^     ^        ^    ^     ^        ^    ^     ^        ^
e ||---(2)-2--2---2-2-|----(3)-3--3---3-3-|----(2)-2--2---2-2-|----(3)-3--3---3-3-|
B ||---(0)-0--0---0-0-|----(1)-1--1---1-1-|----(0)-0--0---0-0-|----(1)-1--1---1-1-|
G ||---(0)-0--0---0-0-|----(0)-0--0---0-0-|----(0)-0--0---0-0-|----(0)-0--0---0-0-|
D ||----2--2--2---2-2-|-0---2--2--2---2-2-|-0---2--2--2---2-2-|-0---2--2--2---2-2-|
A ||---(2)-2--2---2-2-|--3-(3)-3--3---3-3-|----(2)-2--2---2-2-|--3-(3)-3--3---3-3-|
E ||-0-(0)-0--0---0-0-|----(0)-0--0---0-0-|--0-(0)-0--0---0-0-|----(0)-0--0---0-0-|

     Em Add9             C                   G                   D      Dsus4 D
     ^     ^        ^    ^     ^        ^    ^     ^        ^    ^     ^        ^
e |----(2)-2--2---2-2-|----(3)-3--3---3-3-|----(3)-3--3---3-3-|----(2)-2--3---2-2-||
B |----(0)-0--0---0-0-|----(1)-1--1---1-1-|----(0)-0--0---0-0-|----(3)-3--3---3-3-||
G |----(0)-0--0---0-0-|----(0)-0--0---0-0-|----(0)-0--0---0-0-|-0---2--2--2---2-2-|| (x2)
D |-0---2--2--2---2-2-|-0---2--2--2---2-2-|----(0)-0--0---0-0-|--0-(0)-0--0---0-0-||
A |----(2)-2--2---2-2-|--3-(3)-3--3---3-3-|-0---2--2--2---2-2-|-------------------||
E |--0-(0)-0--0---0-0-|----(0)-0--0---0-0-|--3-(3)-3--3---3-3-|-------------------||


Refrain :

     C7                  Bm                  G                   D      Dsus4 D
     ^     ^        ^    ^     ^        ^    ^     ^        ^    ^     ^        ^
e |----(3)-3--3---3-3-|----(2)-2--2---2-2-|----(3)-3--3---3-3-|----(2)-2--3---2-2-|
B |----(5)-5--5---5-5-|----(3)-3--3---3-3-|----(0)-0--0---0-0-|----(3)-3--3---3-3-|
G |----(4)-4--4---4-4-|----(4)-4--4---4-4-|----(0)-0--0---0-0-|-0---2--2--2---2-2-|
D |-0---5--5--5---5-5-|-0---4--4--4---4-4-|----(0)-0--0---0-0-|--0-(0)-0--0---0-0-|
A |--3-(3)-3--3---3-3-|--2-(2)-2--2---2-2-|-0---2--2--2---2-2-|-------------------|
E |----(3)-3--3---3-3-|----(2)-2--2---2-2-|--3-(3)-3--3---3-3-|-------------------|

     Em Add9             C                   Em Add9
     ^     ^        ^    ^     ^        ^    ^     ^        ^    
e |----(2)-2--2---2-2-|----(3)-3--3---3-3-|----(2)-2--2---2-2-|
B |----(0)-0--0---0-0-|----(1)-1--1---1-1-|----(0)-0--0---0-0-|
G |----(0)-0--0---0-0-|----(0)-0--0---0-0-|----(0)-0--0---0-0-|
D |-0---2--2--2---2-2-|-0---2--2--2---2-2-|-0---2--2--2---2-2-|
A |----(2)-2--2---2-2-|--3-(3)-3--3---3-3-|----(2)-2--2---2-2-|
E |--0-(0)-0--0---0-0-|----(0)-0--0---0-0-|--0-(0)-0--0---0-0-|

     C
     ^     ^      ^ ^
e |----(0)-0----|-------|
B |----(1)-1----|-0-----|
G |----(0)-0----|---2---|
D |-0---2--2----|-------|
A |--3-(3)-3----|-------|
E |----(0)-0----|-3-2---|


Dernier refrain (x2) :

      C7                  Bm                  G                   D      Dsus4 D
      ^     ^        ^    ^     ^        ^    ^     ^        ^    ^     ^        ^
e ||----(3)-3--3---3-3-|----(2)-2--2---2-2-|----(3)-3--3---3-3-|----(2)-2--3---2-2-||
B ||----(5)-5--5---5-5-|----(3)-3--3---3-3-|----(0)-0--0---0-0-|----(3)-3--3---3-3-||
G ||----(4)-4--4---4-4-|----(4)-4--4---4-4-|----(0)-0--0---0-0-|-0---2--2--2---2-2-|| (x2)
D ||-0---5--5--5---5-5-|-0---4--4--4---4-4-|----(0)-0--0---0-0-|--0-(0)-0--0---0-0-||
A ||--3-(3)-3--3---3-3-|--2-(2)-2--2---2-2-|-0---2--2--2---2-2-|-------------------||
E ||----(3)-3--3---3-3-|----(2)-2--2---2-2-|--3-(3)-3--3---3-3-|-------------------||

     Em Add9             C                   Em Add9
     ^     ^        ^    ^     ^        ^    ^     ^        ^    
e |----(2)-2--2---2-2-|----(3)-3--3---3-3-|----(2)-2--2---2-2-|
B |----(0)-0--0---0-0-|----(1)-1--1---1-1-|----(0)-0--0---0-0-|
G |----(0)-0--0---0-0-|----(0)-0--0---0-0-|----(0)-0--0---0-0-|
D |-0---2--2--2---2-2-|-0---2--2--2---2-2-|-0---2--2--2---2-2-|
A |----(2)-2--2---2-2-|--3-(3)-3--3---3-3-|----(2)-2--2---2-2-|
E |--0-(0)-0--0---0-0-|----(0)-0--0---0-0-|--0-(0)-0--0---0-0-|

     C                    Em Add9
     ^     ^      ^ ^
e |----(0)-0----|-------|------2----||
B |----(1)-1----|-0-----|-----0-----||
G |----(0)-0----|---2---|----0------||
D |-0---2--2----|-------|---2-------||
A |--3-(3)-3----|-------|--2--------||
E |----(0)-0----|-3-2---|-0---------||

Paroles


On s'est dit adieu
Sans rien se promettre
Au r'voir est un vœu
Trop plein de peut-être
On s'est séparé
Devant une vitrine
Toute illuminée
D'la rue Sainte Cath'rine

Perdu rue Rachel
J'ai dû marcher trop
Faut que j'me rappelle
Où j'prends mon métro
Les rues les quartiers
J'les connais à peine
J'fume des Du Maurier
Que d'puis une semaine

J'suis mêlé, je m'emmêle les pédales
J'suis tout mêlé dans les rues de Montréal

Je passe chez un pote
Station Saint Laurent
Lui et sa gang y fument du pot
Sans perdre leur accent
Et la souv'raineté
Entre souv'rainistes
C'est un sujet qu'est discuté
Neuf fois sur dix
Pendant qu'ils r'font l'histoire
Des referendums
J'tire sur l'pétard
Que me tend un chum
Ca me gèle la face
Faut qu'je bouge d'ici
J'ai plus qu'le goût d'sucer d'la glace
En Abitibi

J'suis mêlé, je m'emmêle les pédales
J'suis tout mêlé dans les rues de Montréal

D'habitude j'aime bien l'hiver
Je trouve ça beau quand tout est blanc
Quand y a d'la neige partout par terre
Et qu'on s'enfonce en marchant d'dans
Mais là j'avoue qu'je suis tanné
Sur le Mont Royal y avait plein d'monde
Au pied d'la stèle de Jacques Cartier
Personne m'a vu pleurer ma blonde

J'suis mêlé, je m'emmêle les pédales
J'suis tout mêlé dans les rues de Montréal
J'suis mêlé, je m'emmêle les pédales
J'suis tout mêlé dans les rues de Montréal