Tabsvolo.net - Tablature : Aucun doute


 Les tablatures : 68

Chanson française (2017)

Sans rire (2013)

C'est pas tout ça... (2010)

En attendant (2009)

Bref... Septembre 2008

  • Ma p'tite chanson
  • J'espère...
  • Bref

Jours heureux (2007)

Blancs Manteaux à Volo (2006)

Bien Zarbos (2004)

Tablature : Aucun doute

19-02-2013

Partager cette tablature

Télécharger la version imprimable




Ecouter un extrait composé de différentes parties de la tablature :



Légende :
||------|| (xN) : Jouer N fois la partie entre les ||


Intro :

    Gm               F            A            Dm           D#M7
e |----------------|------------|------------|------------|------------|
B |-----11------11-|----1-----1-|----5-----5-|----6-----6-|----8-----8-|
G |-----12------12-|----2-----2-|----6-----6-|----7-----7-|----7-----7-|
D |---------12-----|------------|------------|-------7----|-------8----|
A |-10-------------|-------3----|-------7----|-5----------|-6----------|
E |----------------|-1----------|-5----------|------------|------------|

    Dm           A            Dm
e |------------|------------|------------|
B |----6-----6-|----5-----5-|----6-----6-|
G |----7-----7-|----6-----6-|----7-----7-|
D |-------7----|------------|-------7----|
A |-5----------|-------7----|-5----------|
E |------------|-5----------|------------|

Couplet 1 et 2 :

     C             F            D#               B            C#
e ||-------------|------------|----------------|------------|---------------|
B ||----8------8-|----1-----1-|-----11------11-|----6-----6-|----9-------9--|
G ||----9------9-|----2-----2-|-----12------12-|----7-----7-|----10------10-|
D ||-------------|------------|----------------|------------|---------------|
A ||-------10----|-------3----|---------13-----|-------8----|--------11-----|
E ||-8-----------|-1----------|-11-------------|-6----------|-9-------------|

    F            Gm6          A
e |------------|------------|------------||
B |----1-----1-|----8-----8-|----5-----5-||
G |----2-----2-|----7-----7-|----6-----6-|| (x2)
D |------------|-------8----|------------||
A |-------3----|-7----------|-------7----||
E |-1----------|------------|-5----------||

    A
e |------------|
B |----5-----5-|
G |----6-----6-|
D |-7----------|
A |-------7----|
E |------------|

Refrain 1 et 3 :

    Gm               F            A            Dm           D#M7
e |----------------|------------|------------|------------|------------|
B |-----11------11-|----1-----1-|----5-----5-|----6-----6-|----8-----8-|
G |-----12------12-|----2-----2-|----6-----6-|----7-----7-|----7-----7-|
D |---------12-----|------------|------------|-------7----|-------8----|
A |-10-------------|-------3----|-------7----|-5----------|-6----------|
E |----------------|-1----------|-5----------|------------|------------|

    Dm           A            Dm           Dm
e |------------|------------|------------|------------5-|----------|
B |----6-----6-|----5-----5-|----6-----6-|----6------6--|----------|
G |----7-----7-|----6-----6-|----7-----7-|----7-----7---|----------|
D |-------7----|------------|-------7----|---------7----|----------|
A |-5----------|-------7----|-5----------|-5------5-----|----------|
E |------------|-5----------|------------|-------5------|----------|

Refrain 2 :

    Gm               F            A            Dm           D#M7
e |----------------|------------|------------|------------|------------|
B |-----11------11-|----1-----1-|----5-----5-|----6-----6-|----8-----8-|
G |-----12------12-|----2-----2-|----6-----6-|----7-----7-|----7-----7-|
D |---------12-----|------------|------------|-------7----|-------8----|
A |-10-------------|-------3----|-------7----|-5----------|-6----------|
E |----------------|-1----------|-5----------|------------|------------|

    Dm           A            Dm           Dm
e |------------|------------|------------|------------|---------------|
B |----6-----6-|----5-----5-|----6-----6-|----6-------|---------------|
G |----7-----7-|----6-----6-|----7-----7-|----7-------|---------------|
D |-------7----|------------|-------7----|-------7----|---------------|
A |-5----------|-------7----|-5----------|-5----------|---------------|
E |------------|-5----------|------------|------------|---------------|

Troisième couplet - Pont :

    F                         A                         A#
e |------------|------------|------------|------------|------------|------------|
B |----1-----1-|----1-----1-|----5-----5-|----5-----5-|----6-----6-|----6-----6-|
G |----2-----2-|----2-----2-|----6-----6-|----6-----6-|----7-----7-|----7-----7-|
D |------------|-3----------|------------|-7----------|------------|-8----------|
A |-------3----|-------3----|-------7----|-------7----|-------8----|-------8----|
E |-1----------|------------|-5----------|------------|-6----------|------------|

    C                            F                         A
e |-------------|--------------|------------|------------|------------|------------|
B |----8------8-|-----8------8-|----1-----1-|----1-----1-|----5-----5-|----5-----5-|
G |----9------9-|-----9------9-|----2-----2-|----2-----2-|----6-----6-|----6-----6-|
D |-------------|-10-----------|------------|-3----------|------------|-7----------|
A |-------10----|--------10----|-------3----|-------3----|-------7----|-------7----|
E |-8-----------|--------------|-1----------|------------|-5----------|------------|

    Dm           A#           Gm6          A            A
e |------------|------------|------------|------------|------------|
B |----6-----6-|----6-----6-|----8-----8-|----5-----5-|------------|
G |----7-----7-|----7-----7-|----7-----7-|----6-----6-|------------|
D |-------7----|------------|-------8----|------------|-7----------|
A |-5----------|-------8----|-7----------|-------7----|------------|
E |------------|-6----------|------------|-5----------|------------|

Dernier couplet :

    C             F            D#               B            C#
e |-------------|------------|----------------|------------|---------------|
B |----8------8-|----1-----1-|-----11------11-|----6-----6-|----9-------9--|
G |----9------9-|----2-----2-|-----12------12-|----7-----7-|----10------10-|
D |-------------|------------|----------------|------------|---------------|
A |-------10----|-------3----|---------13-----|-------8----|--------11-----|
E |-8-----------|-1----------|-11-------------|-6----------|-9-------------|

    F            Gm6          A
e |------------|------------|------------|
B |----1-----1-|----------8-|------------|
G |----2-----2-|-------7----|----------6-|
D |------------|----8-------|-------7----|
A |-------3----|-7----------|----7-------|
E |-1----------|------------|-5----------|

    C              F            D#               B            C#
e |--------------|------------|----------------|------------|---------------|
B |--------------|------------|----------------|------------|---------------|
G |------------9-|----------2-|-------------12-|----------7-|------------10-|
D |--------10----|-------3----|---------13-----|-------8----|--------11-----|
A |----10--------|----3-------|-----13---------|----8-------|----11---------|
E |-8------------|-1----------|-11-------------|-6----------|-9-------------|

    F            Gm6          A            A
e |------------|------------|------------|------------|
B |------------|----------8-|------------|------------|
G |----------2-|-------7----|----------6-|----------6-|
D |-------3----|----8-------|-------7----|-------7----|
A |----3-------|-7----------|----7-------|----7-------|
E |-1----------|------------|-5----------|-5----------|

Refrain fin :

    Gm             F            A            Dm           D#M7
e |--------------|------------|------------|------------|------------|
B |--------11----|-------1----|-------5----|-------6----|-------8----|
G |--------12----|-------2----|-------6----|-------7----|-------7----|
D |--------------|------------|------------|------------|------------|
A |-10-----------|------------|------------|-5----------|-6----------|
E |--------------|-1----------|-5----------|------------|------------|

    Dm           A            Dm
e |------------|------------|------------|
B |-------6----|----5-----5-|----6-----6-|
G |-------7----|----6-----6-|----7-----7-|
D |------------|------------|-------7----|
A |-5----------|-------7----|-5----------|
E |------------|-5----------|------------|

     Gm               F            A            Dm           D#M7
e ||----------------|------------|------------|------------|------------|
B ||-----11------11-|----1-----1-|----5-----5-|----6-----6-|----8-----8-|
G ||-----12------12-|----2-----2-|----6-----6-|----7-----7-|----7-----7-|
D ||---------12-----|------------|------------|-------7----|-------8----|
A ||-10-------------|-------3----|-------7----|-5----------|-6----------|
E ||----------------|-1----------|-5----------|------------|------------|

    Dm           A            Dm
e |------------|------------|------------||
B |----6-----6-|----5-----5-|----6-----6-||
G |----7-----7-|----6-----6-|----7-----7-|| (x2)
D |-------7----|------------|-------7----||
A |-5----------|-------7----|-5----------||
E |------------|-5----------|------------||

    Dm
e |------------||
B |-6----------||
G |-7----------||
D |-7----------||
A |------------||
E |------------||



Paroles

Avec un pote tranquille, au milieu d'une soirée
Des discutions débiles, rien que pour se marrer
Petit à p'tit pourtant, en train de se défendre
On se parle vraiment, pas facile de s'entendre
Comme une confession, que j'ai pris en fou rire
Début de vexation, c'est pas c'que j'voulais dire
On se met vite d'accord, on va pas s'engueuler
Y'a 5 minutes encore en train de déconner

On s'regarde dans les yeux, on voit la différence
On est dev'nu sérieux, et là en l'occurrence
On discute on s'écoute, pas de blague maladroite
Il l'assume, aucun doute, j'ai un copain de droite

Je n'ai rien vu venir, du peu d'temps qu'on s'connait
Il sait à quoi s'en t'nir, vue la grande gueule que j'ai
Alors de droite d'accord, mais pas décomplexé
Ni pour la peine de mort, ni "feignants d'assistés"
C'est pas une maladie, c'est chacun dans son camp
Tout c'qu'on nous a apprit on est resté dedans
Mais notre jour de chance, c'est qu'on peut s'en parler
Mieux que de dire c'qu'on en pense à son poste de télé

On s'regarde dans les yeux, on voit la différence
On est dev'nu sérieux, avec nos références
On discute on s'écoute, pas de blague maladroite
Il l'assume, aucun doute, j'ai un copain de droite

On a des points communs, une bonne partie de l'histoire
On est républicains des droits et des devoirs
Du point de vu global, du pouvoir des marchés
Des tickets de morale, chacun dans ses clichés
Jusqu'au rôle de l'état, du droit de succession
Du taux de TVA, ou de l'imposition
Lui c'est donner l'envie, de créer d'l'a richesse
Moi c'est gagner sa vie, sans dormir dans sa caisse

On s'regarde dans les yeux, on voit la différence
On est dev'nu sérieux, comme dans une conférence
On discute on s'écoute, pas de blague maladroite
Il l'assume, aucun doute, j'ai un copain de droite

On se contre-argumente, de nos faits avérés
Quelques terrains d'entente, le droit à la santé
Comme tout et son contraire, je peux le reconnaitre
Sans risque de me faire, traiter de social-traitre
Sur la forme et le fond, je chang'rai pas son vote
Le débat tourne en rond et on est toujours pote
On c'dit qu'à la prochaine, on r'prendra du début
De nos discutions vaines et à bâton rompu

Au moment des adieux, on retrouve la conn'rie
C'est plus du tout sérieux et comme on se charit
On s'laisse on en rajoute, que des blagues maladroites
Si j'assume, aucun doute, j'ai un copain de droite

Au moment des adieux, on retrouve la conn'rie
C'est plus du tout sérieux et comme on se charit
On s'laisse on en rajoute, que des blagues maladroites
Si j'assume, aucun doute, j'ai un copain de droite

J'ai un copain de droite