Tabsvolo.net - Tablature : Tu es


 Les tablatures : 68

Chanson française (2017)

Sans rire (2013)

C'est pas tout ça... (2010)

En attendant (2009)

Bref... Septembre 2008

  • Ma p'tite chanson
  • J'espère...
  • Bref

Jours heureux (2007)

Blancs Manteaux à Volo (2006)

Bien Zarbos (2004)

Tablature : Tu es

Télécharger la version imprimable




Ecouter un extrait composé de différentes parties de la tablature :


Légende :
^ : Pull-off ou Pull-on

Intro + refrain :

   B/Dsus2                             A                 Em
e |-----------------|-----------------|-----------------|-----------------|
B |-------3---------|-------3---------|-------3^2-------|-------0---------|
G |-----2---2-----2-|-----2---2-----2-|-----2---2-----0-|-----0---0-----0-|   x5
D |---0-------0-----|---0-------0-----|---2-------2-----|---2-------2-----|
A |-2-----------2---|-2-----------2---|-0-----------0---|-----------------|
E |-----------------|-----------------|-----------------|-0-----------0---|

   B/Dsus2           A                 Em
e |-----------------|-----------------|-----------------|-----------------|
B |-------3---------|-------3^2-------|-------0---------|-------0---------|
G |-----2---2-----2-|-----2---2-----0-|-----0---0-----0-|-----0---0-----0-|
D |---0-------0-----|---2-------2-----|---2-------2-----|---2-------2-----|
A |-2-----------2---|-0-----------0---|-----------------|-----------------|
E |-----------------|-----------------|-0-----------0---|-0-----------0---|


Couplets :
   C#m7/5b                             D7                A
e |-----------------|-----------------|-----------------|-----------------|
B |-------5---------|-------5---------|-------7---------|-------5---------|
G |-----4---4-----4-|-----4---4-----4-|-----6---6-----6-|-----6---6-----6-|
D |---5-------5-----|---5-------5-----|---7-------7-----|---7-------7-----|
A |-4-----------4---|-4-----------4---|-5-----------5---|-----------------|
E |-----------------|-----------------|-----------------|-5-----------5---|
   Em                                  G                 A
e |-----------------|-----------------|-----------------|-----------------|
B |-------8---------|-------8---------|-------3---------|-------5---------|
G |-----9---9-----9-|-----9---9-----9-|-----4---4-----4-|-----6---6-----6-|
D |---9-------9-----|---9-------9-----|---5-------5-----|---7-------7-----|
A |-7-----------7---|-7-----------7---|-----------------|-----------------|
E |-----------------|-----------------|-3-----------3---|-5-----------5---|
   Bm                C#m7/5b           D7                A
e |-----------------|-----------------|-----------------|-----------------|
B |-------3---------|-------5---------|-------7---------|-------5---------|
G |-----4---4-----4-|-----4---4-----4-|-----6---6-----6-|-----6---6-----6-|
D |---4-------4-----|---5-------5-----|---7-------7-----|---7-------7-----|
A |-2-----------2---|-4-----------4---|-5-----------5---|-----------------|
E |-----------------|-----------------|-----------------|-5-----------5---|

   Em                                  G                 Gb
e |-----------------|-----------------|-----------------|-----------------|
B |-------8---------|-------8---------|-------3---------|-----------------|
G |-----9---9-----9-|-----9---9-----9-|-----4---4-----4-|-----------------|
D |---9-------9-----|---9-------9-----|---5-------5-----|-----------------|
A |-7-----------7---|-7-----------7---|-----------------|-----------------|
E |-----------------|-----------------|-3-----------3---|-2---------------|


Refrain :
   B/Dsus2                             A                 Em
e |-----------------|-----------------|-----------------|-----------------|
B |-------3---------|-------3---------|-------3^2-------|-------0---------|
G |-----2---2-----2-|-----2---2-----2-|-----2---2-----0-|-----0---0-----0-|   x3
D |---0-------0-----|---0-------0-----|---2-------2-----|---2-------2-----|
A |-2-----------2---|-2-----------2---|-0-----------0---|-----------------|
E |-----------------|-----------------|-----------------|-0-----------0---|

   B/Dsus2           A                 Em
e |-----------------|-----------------|-----------------|-----------------|
B |-------3---------|-------3^2-------|-------0---------|-------0---------|
G |-----2---2-----2-|-----2---2-----0-|-----0---0-----0-|-----0---0-----0-|
D |---0-------0-----|---2-------2-----|---2-------2-----|---2-------2-----|
A |-2-----------2---|-0-----------0---|-----------------|-----------------|
E |-----------------|-----------------|-0-----------0---|-0-----------0---|


Couplets :
   C#m7/5b                             D7                A
e |-----------------|-----------------|-----------------|-----------------|
B |-------5---------|-------5---------|-------7---------|-------5---------|
G |-----4---4-----4-|-----4---4-----4-|-----6---6-----6-|-----6---6-----6-|
D |---5-------5-----|---5-------5-----|---7-------7-----|---7-------7-----|
A |-4-----------4---|-4-----------4---|-5-----------5---|-----------------|
E |-----------------|-----------------|-----------------|-5-----------5---|
   Em                                  G                 A
e |-----------------|-----------------|-----------------|-----------------|
B |-------8---------|-------8---------|-------3---------|-------5---------|
G |-----9---9-----9-|-----9---9-----9-|-----4---4-----4-|-----6---6-----6-|
D |---9-------9-----|---9-------9-----|---5-------5-----|---7-------7-----|
A |-7-----------7---|-7-----------7---|-----------------|-----------------|
E |-----------------|-----------------|-3-----------3---|-5-----------5---|
   Bm                C#m7/5b           D7                A
e |-----------------|-----------------|-----------------|-----------------|
B |-------3---------|-------5---------|-------7---------|-------5---------|
G |-----4---4-----4-|-----4---4-----4-|-----6---6-----6-|-----6---6-----6-|
D |---4-------4-----|---5-------5-----|---7-------7-----|---7-------7-----|
A |-2-----------2---|-4-----------4---|-5-----------5---|-----------------|
E |-----------------|-----------------|-----------------|-5-----------5---|

   Em                                  G                 Gb
e |-----------------|-----------------|-----------------|-----------------|
B |-------8---------|-------8---------|-------3---------|-----------------|
G |-----9---9-----9-|-----9---9-----9-|-----4---4-----4-|-----------------|
D |---9-------9-----|---9-------9-----|---5-------5-----|-----------------|
A |-7-----------7---|-7-----------7---|-----------------|-----------------|
E |-----------------|-----------------|-3-----------3---|-2---------------|


Reprise en Rythmique pour le refain : A libitum...
   Bm    A     Em
e |--2--|--5--|--7--|
B |--3--|--5--|--8--|
G |--4--|--6--|--9--|
D |--4--|--7--|--9--|
A |--2--|--7--|--7--|
E |--2--|--5--|--7--|

Paroles


On est tout en partage
Grand ciel bleu sans aucun nuage
On se connait tout en douceur
On se promène tout en couleur
Je suis, je parais souvent trop sûr
Tu es tout ce qui me rassure
Tu es ce qui peut me tuer, ce qui peut me tuer...

On est tout en échange
Tout ce qu'on est se mélange
Nos odeurs, nos caresses
Notre sueur tout en tendresse
Nous sommes, on le sait, tout en blessure
Tu es tout ce qui me rassure
Tu es ce qui peut me tuer, ce qui peut me tuer...