Tabsvolo.net - Tablature : Le bonheur


 Les tablatures : 68

Chanson française (2017)

Sans rire (2013)

C'est pas tout ça... (2010)

En attendant (2009)

Bref... Septembre 2008

  • Ma p'tite chanson
  • J'espère...
  • Bref

Jours heureux (2007)

Blancs Manteaux à Volo (2006)

Bien Zarbos (2004)

Tablature : Le bonheur

07-02-2013

Partager cette tablature

Télécharger la version imprimable 


Ecouter un extrait composé de différentes parties de la tablature :



Légende :
                 x : Jouer les cordes étouffées
||------|| (xN) : Jouer N fois la partie entre les ||
                 ^ : Pull on (poser le doigt sur la case sans la gratter)

Intro (Refrain) :

               F              G              G#             A#
e ||-x-x-x-x-|-------1--x-x-|-------3--x-x-|-------4--x-x-|-------6--x-x-|
B ||-x-x-x-x-|-------1--x-x-|-------3--x-x-|-------4--x-x-|-------6--x-x-|
G ||-x-x-x-x-|-------2--x-x-|-------4--x-x-|-------5--x-x-|-------7--x-x-|
D ||-x-x-x-x-|-3--3--3--x-x-|-5--5--5--x-x-|-6--6--6--x-x-|-8--8--8--x-x-|
A ||-x-x-x-x-|-3--3--3--x-x-|-5--5--5--x-x-|-6--6--6--x-x-|-8--8--8--x-x-|
E ||-x-x-x-x-|-1--1--1--x-x-|-3--3--3--x-x-|-4--4--4--x-x-|-6--6--6--x-x-|

    F              G              G#                    A#
e |-------1--x-x-|-------3--x-x-|----4--x-x-x-|-x---x-x-6-x-x-|
B |-------1--x-x-|-------3--x-x-|----4--x-x-x-|-x---x-x-6-x-x-|
G |-------2--x-x-|-------4--x-x-|----5--x-x-x-|-x---x-x-7-x-x-|
D |-3--3--3--x-x-|-5--5--5--x-x-|-6--6--x-x-x-|-x---x-x-8-x-x-|
A |-3--3--3--x-x-|-5--5--5--x-x-|-6--6--x-x-x-|-x---x-x-8-x-x-|
E |-1--1--1--x-x-|-3--3--3--x-x-|-4--4--x-x-x-|-x---x-x-6-x-x-|

    F              G              G#             A#
e |-------1--x-x-|-------3--x-x-|-------4--x-x-|-------6--x-x-|
B |-------1--x-x-|-------3--x-x-|-------4--x-x-|-------6--x-x-|
G |-------2--x-x-|-------4--x-x-|-------5--x-x-|-------7--x-x-|
D |-3--3--3--x-x-|-5--5--5--x-x-|-6--6--6--x-x-|-8--8--8--x-x-|
A |-3--3--3--x-x-|-5--5--5--x-x-|-6--6--6--x-x-|-8--8--8--x-x-|
E |-1--1--1--x-x-|-3--3--3--x-x-|-4--4--4--x-x-|-6--6--6--x-x-|

    F              G              G#             A#
e |-------1--x-x-|-------3--x-x-|-------4--x-x-|-6-x---6--x-x-|
B |-------1--x-x-|-------3--x-x-|-------4--x-x-|-6-x---6--x-x-|
G |-------2--x-x-|-------4--x-x-|-------5--x-x-|-7-x---7--x-x-|
D |-3--3--3--x-x-|-5--5--5--x-x-|-6--6--6--x-x-|-8-x-8-8--x-x-|
A |-3--3--3--x-x-|-5--5--5--x-x-|-6--6--6--x-x-|-8-x-8-8--x-x-|
E |-1--1--1--x-x-|-3--3--3--x-x-|-4--4--4--x-x-|-6-x-6-6--x-x-|


    Cm              Fm                Cm              G
e |-------3-x-x-x-|----8----8--8--x-|-------3-x-x-x-|---3----3-3-x-|
B |-------4-x-x-x-|----9----9--9--x-|-------4-x-x-x-|---3----3-3-x-|
G |-------5-x-x-x-|----10---10-10-x-|-------5-x-x-x-|---4----4-4-x-|
D |-3^5---5-x-x-x-|-10-10---10-10-x-|-3^5---5-x-x-x-|-5-5----5-5-x-|
A |-3-----3-x-x-x-|-8--8----8--8--x-|-3-----3-x-x-x-|-5-5----5-5-x-|
E |-3-----3-x-x-x-|-8--8----8--8--x-|-3-----3-x-x-x-|-3-3----3-3-x-|

    Cm              Fm                D#                  A#
e |-------3-x-x-x-|----8----8--8--x-|----------11-x-x-x-|-6------------|
B |-------4-x-x-x-|----9----9--9--x-|----------11-x-x-x-|-6------------|
G |-------5-x-x-x-|----10---10-10-x-|----------12-x-x-x-|-7------------|
D |-------5-x-x-x-|-10-10---10-10-x-|-11^13----13-x-x-x-|-8------------|
A |-3-----3-x-x-x-|-8--8----8--8--x-|-11^13----13-x-x-x-|-8------------|
E |-3-----3-x-x-x-|-8--8----8--8--x-|-11-------11-x-x-x-|-6------------|

Premier couplet :

     Cm                 Fm                   Cm                G
e ||-----3-x-x-3-x-x--|------8--x-x-8--x-x-|-----3-x-x-3-x-x-|-----3-x-x-3-x-x-|
B ||-----4-x-x-4-x-x--|------9--x-x-9--x-x-|-----4-x-x-4-x-x-|-----3-x-x-3-x-x-|
G ||-----5-x-x-5-x-x--|------10-x-x-10-x-x-|-----5-x-x-5-x-x-|-----4-x-x-4-x-x-|
D ||-5---5-x-x-5-x-10-|-10---10-x-x-10-x-5-|-5---5-x-x-5-x-5-|-5---5-x-x-5-x-5-|
A ||-3---3-x-x-3-x-8--|-8----8--x-x-8--x-3-|-3---3-x-x-3-x-5-|-5---5-x-x-5-x-3-|
E ||-3---3-x-x-3-x-8--|-8----8--x-x-8--x-3-|-3---3-x-x-3-x-3-|-3---3-x-x-3-x-3-|

    Cm                 Fm                    D#                   A#
e |-----3-x-x-3-x-x--|------8--x-x-8--x-x--|------11-x-x-11-x-x-|-----6-x-x-6-x-x-||
B |-----4-x-x-4-x-x--|------9--x-x-9--x-x--|------11-x-x-11-x-x-|-----6-x-x-6-x-x-||
G |-----5-x-x-5-x-x--|------10-x-x-10-x-x--|------12-x-x-12-x-x-|-----7-x-x-7-x-x-|| (x3)
D |-5---5-x-x-5-x-10-|-10---10-x-x-10-x-13-|-13---13-x-x-13-x-8-|-8---8-x-x-8-x-5-||
A |-3---3-x-x-3-x-8--|-8----8--x-x-8--x-13-|-13---13-x-x-13-x-8-|-8---8-x-x-8-x-3-||
E |-3---3-x-x-3-x-8--|-8----8--x-x-8--x-11-|-11---11-x-x-11-x-6-|-6---6-x-x-6-x-3-||

    Cm                 Fm                   Cm                G
e |-----3-x-x-3-x-x--|------8--x-x-8--x-x-|-----3-x-x-3-x-x-|-----3-x-x-3-x-x-|
B |-----4-x-x-4-x-x--|------9--x-x-9--x-x-|-----4-x-x-4-x-x-|-----3-x-x-3-x-x-|
G |-----5-x-x-5-x-x--|------10-x-x-10-x-x-|-----5-x-x-5-x-x-|-----4-x-x-4-x-x-|
D |-5---5-x-x-5-x-10-|-10---10-x-x-10-x-5-|-5---5-x-x-5-x-5-|-5---5-x-x-5-x-5-|
A |-3---3-x-x-3-x-8--|-8----8--x-x-8--x-3-|-3---3-x-x-3-x-5-|-5---5-x-x-5-x-3-|
E |-3---3-x-x-3-x-8--|-8----8--x-x-8--x-3-|-3---3-x-x-3-x-3-|-3---3-x-x-3-x-3-|

    Cm                 Fm                    D#                   A#
e |-----3-x-x-3-x-x--|------8--x-x-8--x-x--|------11-x-x-11-x-x-|-6-x-x-6-6-x-x-x-|
B |-----4-x-x-4-x-x--|------9--x-x-9--x-x--|------11-x-x-11-x-x-|-6-x-x-6-6-x-x-x-|
G |-----5-x-x-5-x-x--|------10-x-x-10-x-x--|------12-x-x-12-x-x-|-7-x-x-7-7-x-x-x-|
D |-5---5-x-x-5-x-10-|-10---10-x-x-10-x-13-|-13---13-x-x-13-x-8-|-8-x-x-8-8-x-x-x-|
A |-3---3-x-x-3-x-8--|-8----8--x-x-8--x-13-|-13---13-x-x-13-x-8-|-8-x-x-8-8-x-x-x-|
E |-3---3-x-x-3-x-8--|-8----8--x-x-8--x-11-|-11---11-x-x-11-x-6-|-6-x-x-6-6-x-x-x-|

Refrain :

    F              G              G#             A#
e |-------1--x-x-|-------3--x-x-|-------4--x-x-|-------6--x-x-|
B |-------1--x-x-|-------3--x-x-|-------4--x-x-|-------6--x-x-|
G |-------2--x-x-|-------4--x-x-|-------5--x-x-|-------7--x-x-|
D |-3--3--3--x-x-|-5--5--5--x-x-|-6--6--6--x-x-|-8--8--8--x-x-|
A |-3--3--3--x-x-|-5--5--5--x-x-|-6--6--6--x-x-|-8--8--8--x-x-|
E |-1--1--1--x-x-|-3--3--3--x-x-|-4--4--4--x-x-|-6--6--6--x-x-|

    F              G              G#                    A#
e |-------1--x-x-|-------3--x-x-|----4--x-x-x-|-x---x-x-6-x-x-|
B |-------1--x-x-|-------3--x-x-|----4--x-x-x-|-x---x-x-6-x-x-|
G |-------2--x-x-|-------4--x-x-|----5--x-x-x-|-x---x-x-7-x-x-|
D |-3--3--3--x-x-|-5--5--5--x-x-|-6--6--x-x-x-|-x---x-x-8-x-x-|
A |-3--3--3--x-x-|-5--5--5--x-x-|-6--6--x-x-x-|-x---x-x-8-x-x-|
E |-1--1--1--x-x-|-3--3--3--x-x-|-4--4--x-x-x-|-x---x-x-6-x-x-|

    F              G              G#             A#
e |-------1--x-x-|-------3--x-x-|-------4--x-x-|-------6--x-x-|
B |-------1--x-x-|-------3--x-x-|-------4--x-x-|-------6--x-x-|
G |-------2--x-x-|-------4--x-x-|-------5--x-x-|-------7--x-x-|
D |-3--3--3--x-x-|-5--5--5--x-x-|-6--6--6--x-x-|-8--8--8--x-x-|
A |-3--3--3--x-x-|-5--5--5--x-x-|-6--6--6--x-x-|-8--8--8--x-x-|
E |-1--1--1--x-x-|-3--3--3--x-x-|-4--4--4--x-x-|-6--6--6--x-x-|

    F              G              G#             A#
e |-------1--x-x-|-------3--x-x-|-------4--x-x-|-6-x---6--x-x-|
B |-------1--x-x-|-------3--x-x-|-------4--x-x-|-6-x---6--x-x-|
G |-------2--x-x-|-------4--x-x-|-------5--x-x-|-7-x---7--x-x-|
D |-3--3--3--x-x-|-5--5--5--x-x-|-6--6--6--x-x-|-8-x-8-8--x-x-|
A |-3--3--3--x-x-|-5--5--5--x-x-|-6--6--6--x-x-|-8-x-8-8--x-x-|
E |-1--1--1--x-x-|-3--3--3--x-x-|-4--4--4--x-x-|-6-x-6-6--x-x-|


    Cm              Fm                Cm              G
e |-------3-x-x-x-|----8----8--8--x-|-------3-x-x-x-|---3----3-3-x-|
B |-------4-x-x-x-|----9----9--9--x-|-------4-x-x-x-|---3----3-3-x-|
G |-------5-x-x-x-|----10---10-10-x-|-------5-x-x-x-|---4----4-4-x-|
D |-3^5---5-x-x-x-|-10-10---10-10-x-|-3^5---5-x-x-x-|-5-5----5-5-x-|
A |-3-----3-x-x-x-|-8--8----8--8--x-|-3-----3-x-x-x-|-5-5----5-5-x-|
E |-3-----3-x-x-x-|-8--8----8--8--x-|-3-----3-x-x-x-|-3-3----3-3-x-|

    Cm              Fm                D#                  A#
e |-------3-x-x-x-|----8----8--8--x-|----------11-x-x-x-|-6------------|
B |-------4-x-x-x-|----9----9--9--x-|----------11-x-x-x-|-6------------|
G |-------5-x-x-x-|----10---10-10-x-|----------12-x-x-x-|-7------------|
D |-3^5---5-x-x-x-|-10-10---10-10-x-|-11^13----13-x-x-x-|-8------------|
A |-3-----3-x-x-x-|-8--8----8--8--x-|-11^13----13-x-x-x-|-8------------|
E |-3-----3-x-x-x-|-8--8----8--8--x-|-11-------11-x-x-x-|-6------------|

Deuxième couplet :

e |--------------|---------------|--------------|---------------|
B |--------------|---------------|--------------|---------------|
G |--------------|---------------|--------------|---------------|
D |----5---------|----5----------|----5---------|----8-----3--4-|
A |-3----------3-|-3-----------5-|-3----------3-|-6-------1--2--|
E |---------1----|----------3----|---------1----|---------------|

e |--------------|---------------|--------------|---------------|
B |--------------|---------------|--------------|---------------|
G |--------------|---------------|--------------|---------------|
D |----5---------|----5----------|----5---------|----8----------|
A |-3----------3-|-3-----------5-|-3----------3-|-6-------8-----|
E |---------1----|----------3----|---------1----|---------6-----|

     Cm          Fm            Cm           G
e |--3-----3--|--8------8---|--3-----3--|-------3-x-x-3-x-x-|
B |--4-----4--|--9------9---|--4-----4--|-------3-x-x-3-x-x-|
G |--5-----5--|--10-----10--|--5-----5--|-------4-x-x-4-x-x-|
D |--5-----5--|--10-----10--|--5-----5--|---5---5-x-x-5-x-5-|
A |--3-----3--|--8------8---|--3-----3--|---5---5-x-x-5-x-3-|
E |--3-----3--|--8------8---|--3-----3--|---3---3-x-x-3-x-3-|

    Cm                 Fm                    D#                   A#
e |-----3-x-x-3-x-x--|------8--x-x-8--x-x--|------11-x-x-11-x-x-|-----6-x-x-6-x-x-|
B |-----4-x-x-4-x-x--|------9--x-x-9--x-x--|------11-x-x-11-x-x-|-----6-x-x-6-x-x-|
G |-----5-x-x-5-x-x--|------10-x-x-10-x-x--|------12-x-x-12-x-x-|-----7-x-x-7-x-x-|
D |-5---5-x-x-5-x-10-|-10---10-x-x-10-x-13-|-13---13-x-x-13-x-8-|-8---8-x-x-8-x-5-|
A |-3---3-x-x-3-x-8--|-8----8--x-x-8--x-13-|-13---13-x-x-13-x-8-|-8---8-x-x-8-x-3-|
E |-3---3-x-x-3-x-8--|-8----8--x-x-8--x-11-|-11---11-x-x-11-x-6-|-6---6-x-x-6-x-3-|

    Cm                 Fm                   Cm                G
e |-----3-x-x-3-x-x--|------8--x-x-8--x-x-|-----3-x-x-3-x-x-|-----3-x-x-3-x-x-|
B |-----4-x-x-4-x-x--|------9--x-x-9--x-x-|-----4-x-x-4-x-x-|-----3-x-x-3-x-x-|
G |-----5-x-x-5-x-x--|------10-x-x-10-x-x-|-----5-x-x-5-x-x-|-----4-x-x-4-x-x-|
D |-5---5-x-x-5-x-10-|-10---10-x-x-10-x-5-|-5---5-x-x-5-x-5-|-5---5-x-x-5-x-5-|
A |-3---3-x-x-3-x-8--|-8----8--x-x-8--x-3-|-3---3-x-x-3-x-5-|-5---5-x-x-5-x-3-|
E |-3---3-x-x-3-x-8--|-8----8--x-x-8--x-3-|-3---3-x-x-3-x-3-|-3---3-x-x-3-x-3-|

    Cm                 Fm                    D#                   A#
e |-----3-x-x-3-x-x--|------8--x-x-8--x-x--|------11-x-x-11-x-x-|-6-x-x-6-6-x-x-x-|
B |-----4-x-x-4-x-x--|------9--x-x-9--x-x--|------11-x-x-11-x-x-|-6-x-x-6-6-x-x-x-|
G |-----5-x-x-5-x-x--|------10-x-x-10-x-x--|------12-x-x-12-x-x-|-7-x-x-7-7-x-x-x-|
D |-5---5-x-x-5-x-10-|-10---10-x-x-10-x-13-|-13---13-x-x-13-x-8-|-8-x-x-8-8-x-x-x-|
A |-3---3-x-x-3-x-8--|-8----8--x-x-8--x-13-|-13---13-x-x-13-x-8-|-8-x-x-8-8-x-x-x-|
E |-3---3-x-x-3-x-8--|-8----8--x-x-8--x-11-|-11---11-x-x-11-x-6-|-6-x-x-6-6-x-x-x-|

Refrain :

    F              G              G#             A#
e |-------1--x-x-|-------3--x-x-|-------4--x-x-|-------6--x-x-|
B |-------1--x-x-|-------3--x-x-|-------4--x-x-|-------6--x-x-|
G |-------2--x-x-|-------4--x-x-|-------5--x-x-|-------7--x-x-|
D |-3--3--3--x-x-|-5--5--5--x-x-|-6--6--6--x-x-|-8--8--8--x-x-|
A |-3--3--3--x-x-|-5--5--5--x-x-|-6--6--6--x-x-|-8--8--8--x-x-|
E |-1--1--1--x-x-|-3--3--3--x-x-|-4--4--4--x-x-|-6--6--6--x-x-|

    F              G              G#                    A#
e |-------1--x-x-|-------3--x-x-|----4--x-x-x-|-x---x-x-6-x-x-|
B |-------1--x-x-|-------3--x-x-|----4--x-x-x-|-x---x-x-6-x-x-|
G |-------2--x-x-|-------4--x-x-|----5--x-x-x-|-x---x-x-7-x-x-|
D |-3--3--3--x-x-|-5--5--5--x-x-|-6--6--x-x-x-|-x---x-x-8-x-x-|
A |-3--3--3--x-x-|-5--5--5--x-x-|-6--6--x-x-x-|-x---x-x-8-x-x-|
E |-1--1--1--x-x-|-3--3--3--x-x-|-4--4--x-x-x-|-x---x-x-6-x-x-|

    F              G              G#             A#
e |-------1--x-x-|-------3--x-x-|-------4--x-x-|-------6--x-x-|
B |-------1--x-x-|-------3--x-x-|-------4--x-x-|-------6--x-x-|
G |-------2--x-x-|-------4--x-x-|-------5--x-x-|-------7--x-x-|
D |-3--3--3--x-x-|-5--5--5--x-x-|-6--6--6--x-x-|-8--8--8--x-x-|
A |-3--3--3--x-x-|-5--5--5--x-x-|-6--6--6--x-x-|-8--8--8--x-x-|
E |-1--1--1--x-x-|-3--3--3--x-x-|-4--4--4--x-x-|-6--6--6--x-x-|

    F              G              G#             A#
e |-------1--x-x-|-------3--x-x-|-------4--x-x-|-6-x---6--x-x-|
B |-------1--x-x-|-------3--x-x-|-------4--x-x-|-6-x---6--x-x-|
G |-------2--x-x-|-------4--x-x-|-------5--x-x-|-7-x---7--x-x-|
D |-3--3--3--x-x-|-5--5--5--x-x-|-6--6--6--x-x-|-8-x-8-8--x-x-|
A |-3--3--3--x-x-|-5--5--5--x-x-|-6--6--6--x-x-|-8-x-8-8--x-x-|
E |-1--1--1--x-x-|-3--3--3--x-x-|-4--4--4--x-x-|-6-x-6-6--x-x-|

    Cm              Fm                Cm              G
e |-------3-x-x-x-|----8----8--8--x-|-------3-x-x-x-|---3----3-3-x-|
B |-------4-x-x-x-|----9----9--9--x-|-------4-x-x-x-|---3----3-3-x-|
G |-------5-x-x-x-|----10---10-10-x-|-------5-x-x-x-|---4----4-4-x-|
D |-3^5---5-x-x-x-|-10-10---10-10-x-|-3^5---5-x-x-x-|-5-5----5-5-x-|
A |-3-----3-x-x-x-|-8--8----8--8--x-|-3-----3-x-x-x-|-5-5----5-5-x-|
E |-3-----3-x-x-x-|-8--8----8--8--x-|-3-----3-x-x-x-|-3-3----3-3-x-|

    Cm              Fm                D#                  A#
e |-------3-x-x-x-|----8----8--8--x-|----------11-x-x-x-|-----6-x-x-6-x-x-|
B |-------4-x-x-x-|----9----9--9--x-|----------11-x-x-x-|-----6-x-x-6-x-x-|
G |-------5-x-x-x-|----10---10-10-x-|----------12-x-x-x-|-----7-x-x-7-x-x-|
D |-3^5---5-x-x-x-|-10-10---10-10-x-|-11^13----13-x-x-x-|-8---8-x-x-8-x-x-|
A |-3-----3-x-x-x-|-8--8----8--8--x-|-11^13----13-x-x-x-|-8---8-x-x-8-x-x-|
E |-3-----3-x-x-x-|-8--8----8--8--x-|-11-------11-x-x-x-|-6---6-x-x-6-x-x-|



Solo guitares :

     F                 G                 G#                A#
e ||-----1-x-x-1-x-x-|-----3-x-x-3-x-x-|-----4-x-x-4-x-x-|-----6-x-x-6-x-x-|
B ||-----1-x-x-1-x-x-|-----3-x-x-3-x-x-|-----4-x-x-4-x-x-|-----6-x-x-6-x-x-|
G ||-----2-x-x-2-x-x-|-----4-x-x-4-x-x-|-----5-x-x-5-x-x-|-----7-x-x-7-x-x-|
D ||-3---3-x-x-3-x-5-|-5---5-x-x-5-x-6-|-6---6-x-x-6-x-8-|-8---8-x-x-8-x-3-|
A ||-3---3-x-x-3-x-5-|-5---5-x-x-5-x-6-|-6---6-x-x-6-x-8-|-8---8-x-x-8-x-3-|
E ||-1---1-x-x-1-x-3-|-3---3-x-x-3-x-4-|-4---4-x-x-4-x-6-|-6---6-x-x-6-x-1-|

    F                 G                 G#                A#
e |-----1-x-x-1-x-x-|-----3-x-x-3-x-x-|-----4-x-x-4-x-x-|-6-x-x---6-x-x-||
B |-----1-x-x-1-x-x-|-----3-x-x-3-x-x-|-----4-x-x-4-x-x-|-6-x-x---6-x-x-||
G |-----2-x-x-2-x-x-|-----4-x-x-4-x-x-|-----5-x-x-5-x-x-|-7-x-x---7-x-x-|| (x2)
D |-3---3-x-x-3-x-5-|-5---5-x-x-5-x-6-|-6---6-x-x-6-x-8-|-8-x-x-8-8-x-3-||
A |-3---3-x-x-3-x-5-|-5---5-x-x-5-x-6-|-6---6-x-x-6-x-8-|-8-x-x-8-8-x-3-||
E |-1---1-x-x-1-x-3-|-3---3-x-x-3-x-4-|-4---4-x-x-4-x-6-|-6-x-x-6-6-x-1-||

    Cm              Fm                Cm              G
e |---------x-x-x-|---------------x-|---------x-x-x-|------------x-|
B |---------x-x-x-|---------------x-|---------x-x-x-|------------x-|
G |-------5-x-x-x-|----10---10-10-x-|-------5-x-x-x-|---4----4-4-x-|
D |-3^5---5-x-x-x-|-10-10---10-10-x-|-3^5---5-x-x-x-|-5-5----5-5-x-|
A |-3-----3-x-x-x-|-8--8----8--8--x-|-3-----3-x-x-x-|-5-5----5-5-x-|
E |-3-----3-x-x-x-|-8--8----8--8--x-|-3-----3-x-x-x-|-3-3----3-3-x-|

    Cm              Fm                D#                  A#
e |---------x-x-x-|---------------x-|----------11-x-x-x-|-6------------|
B |---------x-x-x-|---------------x-|----------11-x-x-x-|-6------------|
G |-------5-x-x-x-|----10---10-10-x-|----------12-x-x-x-|-7------------|
D |-------5-x-x-x-|-10-10---10-10-x-|-11^13----13-x-x-x-|-8------------|
A |-3-----3-x-x-x-|-8--8----8--8--x-|-11^13----13-x-x-x-|-8------------|
E |-3-----3-x-x-x-|-8--8----8--8--x-|-11-------11-x-x-x-|-6------------|

Dernier petit couplet :

          Cm              Fm               Cm              G
e |---------------|----------------|---------------|---------------|
B |-------4-------|-------9--------|-------4-------|---------------|
G |-------5-------|-------10-------|-------5-------|-------4-------|
D |-------5-------|-------10-------|-------5-------|-------5-------|
A |-------3-------|-------8--------|-------3-------|-------5-------|
E |---------------|----------------|---------------|-------3-------|

          Cm              Fm               D#               A#
e |---------------|----------------|---------------|-------------------|
B |-------4-------|-------9--------|---------------|-------------------|
G |-------5-------|-------10-------|-------12------|---------------x-x-|
D |-------5-------|-------10-------|-------13------|--------8--8-8-x-x-|
A |-------3-------|-------8--------|-------13------|--------8--8-8-x-x-|
E |---------------|----------------|-------11------|--------6--6-6-x-x-|

Fin (refrains) :

     Cm                 Fm                   Cm                G
e ||-----3-x-x-3-x-x--|------8--x-x-8--x-x-|-----3-x-x-3-x-x-|-----3-x-x-3-x-x-|
B ||-----4-x-x-4-x-x--|------9--x-x-9--x-x-|-----4-x-x-4-x-x-|-----3-x-x-3-x-x-|
G ||-----5-x-x-5-x-x--|------10-x-x-10-x-x-|-----5-x-x-5-x-x-|-----4-x-x-4-x-x-|
D ||-5---5-x-x-5-x-10-|-10---10-x-x-10-x-5-|-5---5-x-x-5-x-5-|-5---5-x-x-5-x-5-|
A ||-3---3-x-x-3-x-8--|-8----8--x-x-8--x-3-|-3---3-x-x-3-x-5-|-5---5-x-x-5-x-3-|
E ||-3---3-x-x-3-x-8--|-8----8--x-x-8--x-3-|-3---3-x-x-3-x-3-|-3---3-x-x-3-x-3-|

    Cm                 Fm                    D#                   A#
e |-----3-x-x-3-x-x--|------8--x-x-8--x-x--|------11-x-x-11-x-x-|-----6-x-x-6-x-x-||
B |-----4-x-x-4-x-x--|------9--x-x-9--x-x--|------11-x-x-11-x-x-|-----6-x-x-6-x-x-||
G |-----5-x-x-5-x-x--|------10-x-x-10-x-x--|------12-x-x-12-x-x-|-----7-x-x-7-x-x-|| (x6)
D |-5---5-x-x-5-x-10-|-10---10-x-x-10-x-13-|-13---13-x-x-13-x-8-|-8---8-x-x-8-x-5-||
A |-3---3-x-x-3-x-8--|-8----8--x-x-8--x-13-|-13---13-x-x-13-x-8-|-8---8-x-x-8-x-3-||
E |-3---3-x-x-3-x-8--|-8----8--x-x-8--x-11-|-11---11-x-x-11-x-6-|-6---6-x-x-6-x-3-||

    Cm                 Fm                   Cm                G
e |-----3-x-x-3-x-x--|------8--x-x-8--x-x-|-----3-x-x-3-x-x-|-----3-x-x-3-x-x-|
B |-----4-x-x-4-x-x--|------9--x-x-9--x-x-|-----4-x-x-4-x-x-|-----3-x-x-3-x-x-|
G |-----5-x-x-5-x-x--|------10-x-x-10-x-x-|-----5-x-x-5-x-x-|-----4-x-x-4-x-x-|
D |-5---5-x-x-5-x-10-|-10---10-x-x-10-x-5-|-5---5-x-x-5-x-5-|-5---5-x-x-5-x-5-|
A |-3---3-x-x-3-x-8--|-8----8--x-x-8--x-3-|-3---3-x-x-3-x-5-|-5---5-x-x-5-x-3-|
E |-3---3-x-x-3-x-8--|-8----8--x-x-8--x-3-|-3---3-x-x-3-x-3-|-3---3-x-x-3-x-3-|

    Cm                 Fm                    D#                   A#                Cm
e |-----3-x-x-3-x-x--|------8--x-x-8--x-x--|------11-x-x-11-x-x-|-6-x-x-x-6-x-x-x-|-3-3------------||
B |-----4-x-x-4-x-x--|------9--x-x-9--x-x--|------11-x-x-11-x-x-|-6-x-x-x-6-x-x-x-|-4-4------------||
G |-----5-x-x-5-x-x--|------10-x-x-10-x-x--|------12-x-x-12-x-x-|-7-x-x-x-7-x-x-x-|-5-5------------||
D |-5---5-x-x-5-x-10-|-10---10-x-x-10-x-13-|-13---13-x-x-13-x-8-|-8-x-x-x-8-x-x-x-|-5-5------------||
A |-3---3-x-x-3-x-8--|-8----8--x-x-8--x-13-|-13---13-x-x-13-x-8-|-8-x-x-x-8-x-x-x-|-3-3------------||
E |-3---3-x-x-3-x-8--|-8----8--x-x-8--x-11-|-11---11-x-x-11-x-6-|-6-x-x-x-6-x-x-x-|-3-3------------||

Paroles


{Refrain}
Je n'connais rien de sa vie
Je découvre son odeur
Et l'émotion qui m'envahit
Me fait un peu peur
On a laissé tomber la nuit,
J'ai écouté battre son coeur
J'ai l'impression qu'j'ai r'ssenti
C'qui s'appelle le bonheur !

Prenez une jolie journée d'été
Ajoutez-y une jolie fille
Avec trois chiens en train d'zoner
Pas le genre qui s'maquille
Faites-la s'assoir sur un banc
Elle finira par s'endormir
V'là qu'les trois clébards foutent le camp
Elle se met à courir
Mais le parc est immense
Et les chiens vont tout droit
Ca fait comme une danse
Elle au milieu des trois
Il est allongé par terre
Dans l'herbe, dans l'parc, dans un roman
Son livre s'envole dans les airs
Elle vient de lui rentrer dedans

{au Refrain}

Elle s'excuse, se relève
Il renfile sa chemise
Ca fait un peu Adam et Eve
En moins débile, bref ils sympathisent
Elle est chouette, il est fou
Les chiens ont disparu
Ils discutent beaucoup
Et, bien sûr, il se disent "tu"
On vous passe les détails
Parce que c'est super long
Quand elle a dit "Faut que j'm'en aille"
Il a répondu "Non"
Elle est belle, il est doux
Les chiens sont revenus
Un peu comme des maris jaloux
Mais pas tout à fait cocus

{au Refrain}

Ils se sont tenus dans les bras
Tout c'qu'a duré l'après-midi
Ils s’reverront peut-être ou pas
On vous chante ce qu'ils se sont dit

{au Refrain}
{au Refrain}
{au Refrain}