Tabsvolo.net - Tablature : Fiston


 Les tablatures : 68

Chanson française (2017)

Sans rire (2013)

C'est pas tout ça... (2010)

En attendant (2009)

Bref... Septembre 2008

  • Ma p'tite chanson
  • J'espère...
  • Bref

Jours heureux (2007)

Blancs Manteaux à Volo (2006)

Bien Zarbos (2004)

Tablature : Fiston

Télécharger la version imprimable



Ecouter un extrait composé de différentes parties de la tablature :



Légende :
||----|| (x2)
: Rejouer la partie bornée par des doubles barres.

Crescendo : Jouer doucement puis de plus en plus fort.

Nb : Les dernières cordes jouées en arpège d'un accord précédent un changement d'accord sont quelques fois jouées à vide ;-)

Intro :
     Am                Dm                F                 E
e ||-----------------|-----------------|-----------------|-----------------||
B ||---1---1---1---1-|---6---6---6---6-|---1---1---1---1-|---0---0---0---0-||
G ||---2---2---2---2-|---7---7---7---7-|---2---2---2---2-|---1---1---1---1-|| (x2)
D ||-----2-------2---|-----7-------7---|---------3-------|---------2-------||
A ||-0-------0-------|-5-------5-------|-----3-------3---|-----2-------2---||
E ||-----------------|-----------------|-1---------------|-0---------------||


Nb : bien écouter Frédo pour le grattage. Je marque ici les temps fort mais rien ne vaut un bon modèle ;)
Refrain :
    Am                Dm                F                 E
e |-----------------|-----------------|-----------------|-----------------|
B |---1---1---1---1-|---6---6---6---6-|---1---1---1---1-|---0---0---0---0-|
G |---2---2---2---2-|---7---7---7---7-|---2---2---2---2-|---1---1---1---1-|
D |-----2-------2---|-----7-------7---|---------3-------|---------2-------|
A |-0-------0-------|-5-------5-------|-----3-------3---|-----2-------2---|
E |-----------------|-----------------|-1---------------|-0---------------|

    Am                Dm                F                 E
e |-----------------|-----------------|-----------------|-0---------------|
B |---1---1---1---1-|---6---6---6---6-|---1---1---1---1-|-0---------------|
G |---2---2---2---2-|---7---7---7---7-|---2---2---2---2-|-1---------------|
D |-----2-------2---|-----7-------7---|---------3-------|-2---------------|
A |-0-------0-------|-5-------5-------|-----3-------3---|-2---------------|
E |-----------------|-----------------|-1---------------|-0---------------|

     Am                             Dm
e ||----5----5-5-------5----5-5---|----5----5-5-------5----5-5---|
B ||----5----5-5-------5----5-5---|----6----6-6-------6----6-6---|
G ||----5----5-5-------5----5-5---|----7----7-7-------7----7-7---|
D ||-7--7----7-7----7--7----7-7---|-7--7----7-7----7--7----7-7---|
A ||-7--7----7-7----7--7----7-7---|-5--5----5-5----5--5----5-5---|
E ||-5--5----7-7----5--5----5-5---|-5--5----5-5----5--5----5-5---|

    F                              E
e |----1----1-1-------1----1-1---|----0----0-0-------0----0-0---||
B |----1----1-1-------1----1-1---|----0----0-0-------0----0-0---||
G |----2----2-2-------2----2-2---|----1----1-1-------1----1-1---|| (x2)
D |-3--3----3-3----3--3----3-3---|-2--2----2-2----2--2----2-2---||
A |-3--3----3-3----3--3----3-3---|-2--2----2-2----2--2----2-2---||
E |-1--1----1-1----1--1----1-1---|-0--0----0-0----0--0----0-0---||


Premier Couplet : uniquement avec la basse... Mais quand on a pas de bassiste :
     Am                Dm                F                 E
e ||-----------------|-----------------|-----------------|-----------------||
B ||---1---1---1---1-|---6---6---6---6-|---1---1---1---1-|---0---0---0---0-||
G ||---2---2---2---2-|---7---7---7---7-|---2---2---2---2-|---1---1---1---1-|| (x2)
D ||-----2-------2---|-----7-------7---|---------3-------|---------2-------||
A ||-0-------0-------|-5-------5-------|-----3-------3---|-----2-------2---||
E ||-----------------|-----------------|-1---------------|-0---------------||


Refrain : (Crescendo)

    Am                             Dm
e |----5----5-5-------5----5-5---|----5----5-5-------5----5-5---|
B |----5----5-5-------5----5-5---|----6----6-6-------6----6-6---|
G |----5----5-5-------5----5-5---|----7----7-7-------7----7-7---|
D |-7--7----7-7----7--7----7-7---|-7--7----7-7----7--7----7-7---|
A |-7--7----7-7----7--7----7-7---|-5--5----5-5----5--5----5-5---|
E |-5--5----7-7----5--5----5-5---|-5--5----5-5----5--5----5-5---|

    F                              E
e |----1----1-1-------1----1-1---|----0----0-0-------0----0-0---|
B |----1----1-1-------1----1-1---|----0----0-0-------0----0-0---|
G |----2----2-2-------2----2-2---|----1----1-1-------1----1-1---|
D |-3--3----3-3----3--3----3-3---|-2--2----2-2----2--2----2-2---|
A |-3--3----3-3----3--3----3-3---|-2--2----2-2----2--2----2-2---|
E |-1--1----1-1----1--1----1-1---|-0--0----0-0----0--0----0-0---|

    Am                             Dm
e |----5----5-5-------5----5-5---|----5----5-5-------5----5-5---|
B |----5----5-5-------5----5-5---|----6----6-6-------6----6-6---|
G |----5----5-5-------5----5-5---|----7----7-7-------7----7-7---|
D |-7--7----7-7----7--7----7-7---|-7--7----7-7----7--7----7-7---|
A |-7--7----7-7----7--7----7-7---|-5--5----5-5----5--5----5-5---|
E |-5--5----7-7----5--5----5-5---|-5--5----5-5----5--5----5-5---|

    F                              E
e |----1----1-1-------1----1-1---|-0----------------------------|
B |----1----1-1-------1----1-1---|-0----------------------------|
G |----2----2-2-------2----2-2---|-1----------------------------|
D |-3--3----3-3----3--3----3-3---|-2----------------------------|
A |-3--3----3-3----3--3----3-3---|-2----------------------------|
E |-1--1----1-1----1--1----1-1---|-0----------------------------|

     Am                             Dm
e ||----5----5-5-------5----5-5---|----5----5-5-------5----5-5---|
B ||----5----5-5-------5----5-5---|----6----6-6-------6----6-6---|
G ||----5----5-5-------5----5-5---|----7----7-7-------7----7-7---|
D ||-7--7----7-7----7--7----7-7---|-7--7----7-7----7--7----7-7---|
A ||-7--7----7-7----7--7----7-7---|-5--5----5-5----5--5----5-5---|
E ||-5--5----7-7----5--5----5-5---|-5--5----5-5----5--5----5-5---|

    F                              E
e |----1----1-1-------1----1-1---|----0----0-0-------0----0-0---||
B |----1----1-1-------1----1-1---|----0----0-0-------0----0-0---||
G |----2----2-2-------2----2-2---|----1----1-1-------1----1-1---|| (x2)
D |-3--3----3-3----3--3----3-3---|-2--2----2-2----2--2----2-2---||
A |-3--3----3-3----3--3----3-3---|-2--2----2-2----2--2----2-2---||
E |-1--1----1-1----1--1----1-1---|-0--0----0-0----0--0----0-0---||


Second Couplet :
Au choix : gratté, ou arpège, ou A capella avec une bonne guitare rythmique...
...et Hugues ;-)

Refrain : (Crescendo)

    Am                             Dm
e |----5----5-5-------5----5-5---|----5----5-5-------5----5-5---|
B |----5----5-5-------5----5-5---|----6----6-6-------6----6-6---|
G |----5----5-5-------5----5-5---|----7----7-7-------7----7-7---|
D |-7--7----7-7----7--7----7-7---|-7--7----7-7----7--7----7-7---|
A |-7--7----7-7----7--7----7-7---|-5--5----5-5----5--5----5-5---|
E |-5--5----7-7----5--5----5-5---|-5--5----5-5----5--5----5-5---|

    F                              E
e |----1----1-1-------1----1-1---|----0----0-0-------0----0-0---|
B |----1----1-1-------1----1-1---|----0----0-0-------0----0-0---|
G |----2----2-2-------2----2-2---|----1----1-1-------1----1-1---|
D |-3--3----3-3----3--3----3-3---|-2--2----2-2----2--2----2-2---|
A |-3--3----3-3----3--3----3-3---|-2--2----2-2----2--2----2-2---|
E |-1--1----1-1----1--1----1-1---|-0--0----0-0----0--0----0-0---|

    Am                             Dm
e |----5----5-5-------5----5-5---|----5----5-5-------5----5-5---|
B |----5----5-5-------5----5-5---|----6----6-6-------6----6-6---|
G |----5----5-5-------5----5-5---|----7----7-7-------7----7-7---|
D |-7--7----7-7----7--7----7-7---|-7--7----7-7----7--7----7-7---|
A |-7--7----7-7----7--7----7-7---|-5--5----5-5----5--5----5-5---|
E |-5--5----7-7----5--5----5-5---|-5--5----5-5----5--5----5-5---|

    F                              E
e |----1----1-1-------1----1-1---|-0----------------------------|
B |----1----1-1-------1----1-1---|-0----------------------------|
G |----2----2-2-------2----2-2---|-1----------------------------|
D |-3--3----3-3----3--3----3-3---|-2----------------------------|
A |-3--3----3-3----3--3----3-3---|-2----------------------------|
E |-1--1----1-1----1--1----1-1---|-0----------------------------|


Dernier Couplet :
     Am                             Dm
e ||----5----5-5-------5----5-5---|----5----5-5-------5----5-5---|
B ||----5----5-5-------5----5-5---|----6----6-6-------6----6-6---|
G ||----5----5-5-------5----5-5---|----7----7-7-------7----7-7---|
D ||-7--7----7-7----7--7----7-7---|-7--7----7-7----7--7----7-7---|
A ||-7--7----7-7----7--7----7-7---|-5--5----5-5----5--5----5-5---|
E ||-5--5----7-7----5--5----5-5---|-5--5----5-5----5--5----5-5---|

    F                              E
e |----1----1-1-------1----1-1---|----0----0-0-------0----0-0---||
B |----1----1-1-------1----1-1---|----0----0-0-------0----0-0---||
G |----2----2-2-------2----2-2---|----1----1-1-------1----1-1---|| (x2)
D |-3--3----3-3----3--3----3-3---|-2--2----2-2----2--2----2-2---||
A |-3--3----3-3----3--3----3-3---|-2--2----2-2----2--2----2-2---||
E |-1--1----1-1----1--1----1-1---|-0--0----0-0----0--0----0-0---||


Dernier refrain et fin :
Reprendre le refrain en gratté (doublé) et continuer jusqu'à la fin avec quelques petites variations rythmiques sur la fin pour finir en Am barré 5.

Paroles


Refrain:
Fiston, ça va l'faire
On va s'organiser, on va s'en sortir
Fiston, j'aime ta mère
Elle va réaliser, elle va rev’nir

En attendant, j'te cache pas
Que j'vais avoir besoin d'toi
J'vais pas m'planquer pour pleurer
J'serai toujours là pour t'consoler
En attendant, entre nous,
On va s'aider et t'nir le coup
Et même si on n'a rien choisi
En attendant qu'elle change d'avis

{Refrain}

En attendant, on avance
On n'a pas l’choix, on fait avec
Ca r'ssemble un peu à des vacances
Toi et moi entre mecs
En attendant, on est vivants
Et c'est normal d'avoir d'la peine
J'peux pas t'dire pendant combien d'temps
En attendant qu'elle revienne

{Refrain}

En attendant, on s'cache rien
On vit ensemble, on s'parle, on s'cause
Tu sais, d'puis l'temps, j'la connais bien
J'aurais p't-êt' pu faire la même chose
En attendant, on l'aime
Et comme on sait qu'elle nous aime aussi
On pense à elle et quand bien même
Elle me dira que c'est fini

Fiston, ça va l'faire
On va s’organiser, on va s’en sortir
Fiston, j’aime ta mère
Elle va réaliser, elle va re’vnir

Fiston, ça va l’faire
On va improviser, on va s'en sortir
Fiston, j'aime ta mère
Et j'espèèère qu'elle va revenir