Tabsvolo.net - Tablature : Pas de Requiem


 Les tablatures : 68

Chanson française (2017)

Sans rire (2013)

C'est pas tout ça... (2010)

En attendant (2009)

Bref... Septembre 2008

  • Ma p'tite chanson
  • J'espère...
  • Bref

Jours heureux (2007)

Blancs Manteaux à Volo (2006)

Bien Zarbos (2004)

Tablature : Pas de Requiem

Télécharger la version imprimable
Télécharger la tablature guitare de Hugues Barbet







Ecouter un extrait composé de différentes parties de la tablature :



Intro :

     C                     Em                    Am aug5               G7
     ^     ^         ^     ^     ^         ^     ^     ^         ^     ^     ^         ^
e ||-----0-0-0-----0-0--|------0-0-0-----0-0--|------0-0-0-----0-0--|------7-7-7-----7-7--0-|
B ||-----1-1-1-----1-1--|------0-0-0-----0-0--|------6-6-6-----6-6--|------6-6-6-----6-6--0-|
G ||-----0-0-0-----0-0--|------0-0-0-----0-0--|------5-5-5-----5-5--|(0)---7-7-7-----7-7--0-|
D ||-----2-2-2-----2-2--|(0)---2-2-2-----2-2--|(0)---7-7-7-----7-7--|--5---5-5-5-5---5-5----|
A ||-3---3-3-3-3---3-3--|--2---2-2-2-2---2-2--|--0---------0--------|-----------------------|
E ||--------------------|---------------------|---------------------|-----------------------|

    C                     Em                    Am aug5               G7
    ^     ^         ^     ^     ^         ^     ^     ^         ^     ^     ^         ^
e |-----0-0-0-----0-0--|------0-0-0-----0-0--|------0-0-0-----0-0--|------7-7-7-----7-7--0-|
B |-----1-1-1-----1-1--|------0-0-0-----0-0--|------6-6-6-----6-6--|------6-6-6-----6-6--0-|
G |-----0-0-0-----0-0--|------0-0-0-----0-0--|------5-5-5-----5-5--|(0)---7-7-7-----7-7--0-|
D |-----2-2-2-----2-2--|(0)---2-2-2-----2-2--|(0)---7-7-7-----7-7--|--5---5-5-5-5---5-5----|
A |-3---3-3-3-3---3-3--|--2---2-2-2-2---2-2--|--0---------0--------|-----------------------|
E |--------------------|---------------------|---------------------|-----------------------|


Couplets :

     C                     Em                    Am aug5               G7
     ^     ^         ^     ^     ^         ^     ^     ^         ^     ^     ^         ^
e ||-----0-0-0-----0-0--|------0-0-0-----0-0--|------0-0-0-----0-0--|------7-7-7-----7-7---0||
B ||-----1-1-1-----1-1--|------0-0-0-----0-0--|------6-6-6-----6-6--|------6-6-6-----6-6---0||
G ||-----0-0-0-----0-0--|------0-0-0-----0-0--|------5-5-5-----5-5--|(0)---7-7-7-----7-7---0||
D ||-----2-2-2-----2-2--|(0)---2-2-2-----2-2--|(0)---7-7-7-----7-7--|--5---5-5-5-5---5-5----||
A ||-3---3-3-3-3---3-3--|--2---2-2-2-2---2-2--|--0---------0--------|-----------------------||
E ||--------------------|---------------------|---------------------|-----------------------||
     (x4)


Refrains :

    D sus2    Am          D sus2   Am         C                     Dm          E
    ^     ^         ^    ^     ^         ^    ^     ^         ^     ^     ^           ^
e |-----0-0-0-----0-0-|------0-0-0-----0-0-|------0-0-0-----0-0-|-------1-1---------0-0-|
B |-----3-3-3-----1-1-|------3-3-3-----1-1-|------1-1-1-----1-1-|-------3-3---------0-0-|
G |-----2-2-2-----2-2-|------2-2-2-----2-2-|------0-0-0-----0-0-|-------2-2---------1-1-|
D |-----2-2-2-----2-2-|(0)---2-2-2-----2-2-|(0)---2-2-2-----2-2-|(0)0---0-0---(0)---2-2-|
A |-0---0-0-0-0---0-0-|--0---0-0-0-0---0-0-|--3---3-3-3-3---3-3-|-------------------2-2-|
E |-------------------|--------------------|--------------------|---------------0---0-0-|

      D sus2   Am         E                  D sus2    Am          Dm          E
     ^     ^         ^    ^     ^       ^    ^     ^         ^     ^     ^     ^     ^
e |------0-0-0-----0-0-|------0-0-------0-|------0-0-0-----0-0-|-------1-1---------0-0-----|
B |------3-3-3-----1-1-|------0-0-------0-|------3-3-3-----1-1-|-------3-3---------0-0-----|
G |------2-2-2-----2-2-|------1-1-------1-|------2-2-2-----2-2-|-------2-2---------1-1-----|
D |(0)---2-2-2-----2-2-|(0)---2-2-------2-|(0)---2-2-2-----2-2-|(0)0---0-0---(0)---2-2--(0)|
A |--0---0-0-0-0---0-0-|------2-2-------2-|--0---0-0-0-0---0-0-|-------------------2-2-----|
E |--------------------|--0---0-0-------0-|--------------------|---------------0---0-0-----|

Fin :

     C                     Em                    Am aug5               G7
     ^     ^         ^     ^     ^         ^     ^     ^         ^     ^     ^         ^
e ||-----0-0-0-----0-0--|------0-0-0-----0-0--|------0-0-0-----0-0--|------7-7-7-----7-7---0||
B ||-----1-1-1-----1-1--|------0-0-0-----0-0--|------6-6-6-----6-6--|------6-6-6-----6-6---0||
G ||-----0-0-0-----0-0--|------0-0-0-----0-0--|------5-5-5-----5-5--|(0)---7-7-7-----7-7---0||
D ||-----2-2-2-----2-2--|(0)---2-2-2-----2-2--|(0)---7-7-7-----7-7--|--5---5-5-5-5---5-5----||
A ||-3---3-3-3-3---3-3--|--2---2-2-2-2---2-2--|--0---------0--------|-----------------------||
E ||--------------------|---------------------|---------------------|-----------------------||
     (Répéter jusqu'à la fin...)

    C
e |-----0----------------||
B |----1-----------------||
G |---0------------------||
D |--2-------------------||
A |-3--------------------||
E |----------------------||

Paroles


Comme je sais qu't'aimes ce genre de mélodie
Et comme j'aimerai que tu trouves ça joli
Comme je sais qu't'aimes pas les déclarations d'flamme
Et qu'je devrais depuis l'temps plutôt t'app'ler Madame
Comme je sais qu't'aimes ce genre de mélodie
Comme je connaissais l'air de la mélancolie
Comme je sais qu't'aimes pas quand on pèse mal ses mots
Vu comment qu'c'est l'moment pour se faire des cadeaux

Si fallait qu'j'trouve comment faire pour te dire comment j't'aime
Faudrait qu'j'ai le talent d'écrire un Requiem
Pour donner une espèce de grâce inattendue
Aux messes basses de mes peines perdues

Comme je sais qu't'aimes ce genre de mélodie
Comme ce s'rai déplacé d'en faire une tragédie
Comme je sais qu'imagines bien ce que j'aim'rai te dire
Si j'trouvai le moyen d'avoir le ton d'en rire
Comme je sais qu't'aimes ce genre de mélodie
Et comme ça me plairait d'en faire une parodie
Comme tu sais qu'je suis rar'ment toujours très rigolo
Vu comment qu'c'est l'moment pour se faire des cadeaux

Si fallait qu'j'trouve comment faire pour te dire comment j't'aime
Faudrait qu'j'ai le talent d'écrire un Requiem
Pour donner une espèce de grâce inattendue
Aux messes basses de mes peines perdues

Comme je sais qu't'aimes ce genre de mélodie
Comme je trouve qu'elle se prête à cette psalmodie
Comme je sais qu'c'est pas courant comme vocabulaire
Et qu't'as sûr'ment d'autres choses à faire qu'ouvrir un dictionnaire
Comme je sais qu't'aimes ce genre de mélodie
Et comme ça rime à rien si je te la dédie
Comme tu sais qu'ça m'aurait plu d'la faire d'une autre façon
Même si c'est pas pour toi cette chanson

Si fallait qu'j'trouve comment faire pour te dire comment j't'aime
Faudrait qu'j'ai le talent d'écrire un Requiem
Pour donner une espèce de grâce inattendue
Aux messes basses de mes peines perdues